  0
SECTION
  2
HEADER
  9
$ACADVER
  1
AC1009
  0
ENDSEC
  0
SECTION
  2
TABLES
  0
TABLE
  2
LTYPE
 70
     3
  0
LTYPE
  2
LINETYPE_1
 70
    64
  3
See CAD-STD manual for LINETYPE_1
 72
    65
 73
     0
 40
0.000000
  0
LTYPE
  2
LINETYPE_2
 70
    64
  3
See CAD-STD manual for LINETYPE_2
 72
    65
 73
     0
 40
0.000000
  0
LTYPE
  2
LINETYPE_3
 70
    64
  3
See CAD-STD manual for LINETYPE_3
 72
    65
 73
     2
 40
0.156200
 49
0.125000
 49
-0.031200
  0
LTYPE
  2
LINETYPE_4
 70
    64
  3
See CAD-STD manual for LINETYPE_4
 72
    65
 73
     4
 40
1.000000
 49
0.750000
 49
-0.062500
 49
0.125000
 49
-0.062500
  0
LTYPE
  2
LINETYPE_5
 70
    64
  3
See CAD-STD manual for LINETYPE_5
 72
    65
 73
     2
 40
0.312500
 49
0.250000
 49
-0.062500
  0
LTYPE
  2
LINETYPE_6
 70
    64
  3
See CAD-STD manual for LINETYPE_6
 72
    65
 73
     6
 40
1.187500
 49
0.750000
 49
-0.062500
 49
0.125000
 49
-0.062500
 49
0.125000
 49
-0.062500
  0
LTYPE
  2
LINETYPE_7
 70
    64
  3
See CAD-STD manual for LINETYPE_7
 72
    65
 73
     6
 40
1.187500
 49
0.750000
 49
-0.062500
 49
0.125000
 49
-0.062500
 49
0.125000
 49
-0.062500
  0
LTYPE
  2
LINETYPE_8
 70
    64
  3
See CAD-STD manual for LINETYPE_8
 72
    65
 73
     2
 40
0.125000
 49
0.062500
 49
-0.062500
  0
LTYPE
  2
LINETYPE_9
 70
    64
  3
See CAD-STD manual for LINETYPE_9
 72
    65
 73
     2
 40
0.062500
 49
0.000100
 49
-0.062400
  0
LTYPE
  2
LINETYPE_10
 70
    64
  3
See CAD-STD manual for LINETYPE_10
 72
    65
 73
     4
 40
0.562500
 49
0.375000
 49
-0.062500
 49
0.062500
 49
-0.062500
  0
LTYPE
  2
LINETYPE_11
 70
    64
  3
See CAD-STD manual for LINETYPE_11
 72
    65
 73
     0
 40
0.000000
  0
ENDTAB
  0
ENDSEC
  0
SECTION
  2
ENTITIES
  0
POLYLINE
  8
0
  6
LINETYPE_1
 66
     1
 10
0.0
 20
0.0
 30
0.0
  0
VERTEX
  8
0
 10
0.000000
 20
24.000000
 30
0.0
  0
VERTEX
  8
0
 10
2.000000
 20
24.000000
 30
0.0
  0
SEQEND
  0
POLYLINE
  8
0
  6
LINETYPE_1
 66
     1
 10
0.0
 20
0.0
 30
0.0
  0
VERTEX
  8
0
 10
22.000000
 20
24.000000
 30
0.0
  0
VERTEX
  8
0
 10
24.000000
 20
24.000000
 30
0.0
  0
SEQEND
  0
CIRCLE
  8
0
  6
LINETYPE_1
 10
12.000000
 20
24.000000
 30
0.0
 40
10.000000
  0
POLYLINE
  8
0
  6
LINETYPE_1
 66
     1
 10
0.0
 20
0.0
 30
0.0
  0
VERTEX
  8
0
 10
22.000000
 20
48.000000
 30
0.0
  0
VERTEX
  8
0
 10
23.000000
 20
47.000000
 30
0.0
  0
SEQEND
  0
POLYLINE
  8
0
  6
LINETYPE_1
 66
     1
 10
0.0
 20
0.0
 30
0.0
  0
VERTEX
  8
0
 10
23.000000
 20
47.000000
 30
0.0
  0
VERTEX
  8
0
 10
24.000000
 20
24.000000
 30
0.0
  0
SEQEND
  0
POLYLINE
  8
0
  6
LINETYPE_1
 66
     1
 10
0.0
 20
0.0
 30
0.0
  0
VERTEX
  8
0
 10
2.000000
 20
48.000000
 30
0.0
  0
VERTEX
  8
0
 10
1.000000
 20
47.000000
 30
0.0
  0
SEQEND
  0
POLYLINE
  8
0
  6
LINETYPE_1
 66
     1
 10
0.0
 20
0.0
 30
0.0
  0
VERTEX
  8
0
 10
1.000000
 20
47.000000
 30
0.0
  0
VERTEX
  8
0
 10
0.000000
 20
24.000000
 30
0.0
  0
SEQEND
  0
POLYLINE
  8
0
  6
LINETYPE_1
 66
     1
 10
0.0
 20
0.0
 30
0.0
  0
VERTEX
  8
0
 10
22.000000
 20
0.000000
 30
0.0
  0
VERTEX
  8
0
 10
23.000000
 20
1.000000
 30
0.0
  0
SEQEND
  0
POLYLINE
  8
0
  6
LINETYPE_1
 66
     1
 10
0.0
 20
0.0
 30
0.0
  0
VERTEX
  8
0
 10
23.000000
 20
1.000000
 30
0.0
  0
VERTEX
  8
0
 10
24.000000
 20
24.000000
 30
0.0
  0
SEQEND
  0
POLYLINE
  8
0
  6
LINETYPE_1
 66
     1
 10
0.0
 20
0.0
 30
0.0
  0
VERTEX
  8
0
 10
2.000000
 20
0.000000
 30
0.0
  0
VERTEX
  8
0
 10
1.000000
 20
1.000000
 30
0.0
  0
SEQEND
  0
POLYLINE
  8
0
  6
LINETYPE_1
 66
     1
 10
0.0
 20
0.0
 30
0.0
  0
VERTEX
  8
0
 10
1.000000
 20
1.000000
 30
0.0
  0
VERTEX
  8
0
 10
0.000000
 20
24.000000
 30
0.0
  0
SEQEND
  0
POLYLINE
  8
0
  6
LINETYPE_1
 66
     1
 10
0.0
 20
0.0
 30
0.0
  0
VERTEX
  8
0
 10
12.375000
 20
14.007000
 30
0.0
  0
VERTEX
  8
0
 10
12.375000
 20
7.500000
 30
0.0
  0
SEQEND
  0
POLYLINE
  8
0
  6
LINETYPE_1
 66
     1
 10
0.0
 20
0.0
 30
0.0
  0
VERTEX
  8
0
 10
11.625000
 20
14.007000
 30
0.0
  0
VERTEX
  8
0
 10
11.625000
 20
7.500000
 30
0.0
  0
SEQEND
  0
POLYLINE
  8
0
  6
LINETYPE_1
 66
     1
 10
0.0
 20
0.0
 30
0.0
  0
VERTEX
  8
0
 10
11.625000
 20
40.500000
 30
0.0
  0
VERTEX
  8
0
 10
12.375000
 20
40.500000
 30
0.0
  0
SEQEND
  0
POLYLINE
  8
0
  6
LINETYPE_1
 66
     1
 10
0.0
 20
0.0
 30
0.0
  0
VERTEX
  8
0
 10
11.625000
 20
7.500000
 30
0.0
  0
VERTEX
  8
0
 10
12.375000
 20
7.500000
 30
0.0
  0
SEQEND
  0
POLYLINE
  8
0
  6
LINETYPE_1
 66
     1
 10
0.0
 20
0.0
 30
0.0
  0
VERTEX
  8
0
 10
12.375000
 20
47.500000
 30
0.0
  0
VERTEX
  8
0
 10
22.000000
 20
47.500000
 30
0.0
  0
SEQEND
  0
POLYLINE
  8
0
  6
LINETYPE_1
 66
     1
 10
0.0
 20
0.0
 30
0.0
  0
VERTEX
  8
0
 10
11.625000
 20
47.500000
 30
0.0
  0
VERTEX
  8
0
 10
2.000000
 20
47.500000
 30
0.0
  0
SEQEND
  0
POLYLINE
  8
0
  6
LINETYPE_1
 66
     1
 10
0.0
 20
0.0
 30
0.0
  0
VERTEX
  8
0
 10
22.000000
 20
48.000000
 30
0.0
  0
VERTEX
  8
0
 10
22.000000
 20
47.500000
 30
0.0
  0
SEQEND
  0
POLYLINE
  8
0
  6
LINETYPE_1
 66
     1
 10
0.0
 20
0.0
 30
0.0
  0
VERTEX
  8
0
 10
2.000000
 20
48.000000
 30
0.0
  0
VERTEX
  8
0
 10
2.000000
 20
47.500000
 30
0.0
  0
SEQEND
  0
POLYLINE
  8
0
  6
LINETYPE_1
 66
     1
 10
0.0
 20
0.0
 30
0.0
  0
VERTEX
  8
0
 10
11.625000
 20
47.500000
 30
0.0
  0
VERTEX
  8
0
 10
11.625000
 20
40.500000
 30
0.0
  0
SEQEND
  0
POLYLINE
  8
0
  6
LINETYPE_1
 66
     1
 10
0.0
 20
0.0
 30
0.0
  0
VERTEX
  8
0
 10
12.375000
 20
47.500000
 30
0.0
  0
VERTEX
  8
0
 10
12.375000
 20
40.500000
 30
0.0
  0
SEQEND
  0
POLYLINE
  8
0
  6
LINETYPE_1
 66
     1
 10
0.0
 20
0.0
 30
0.0
  0
VERTEX
  8
0
 10
2.000000
 20
0.500000
 30
0.0
  0
VERTEX
  8
0
 10
22.000000
 20
0.500000
 30
0.0
  0
SEQEND
  0
POLYLINE
  8
0
  6
LINETYPE_1
 66
     1
 10
0.0
 20
0.0
 30
0.0
  0
VERTEX
  8
0
 10
22.000000
 20
0.000000
 30
0.0
  0
VERTEX
  8
0
 10
22.000000
 20
0.500000
 30
0.0
  0
SEQEND
  0
POLYLINE
  8
0
  6
LINETYPE_1
 66
     1
 10
0.0
 20
0.0
 30
0.0
  0
VERTEX
  8
0
 10
2.000000
 20
0.000000
 30
0.0
  0
VERTEX
  8
0
 10
2.000000
 20
0.500000
 30
0.0
  0
SEQEND
  0
ENDSEC
  0
EOF
