  0
SECTION
  2
HEADER
  9
$ACADVER
  1
AC1009
  9
$MEASUREMENT
  70
0
  9
$INSUNITS
  70
1
  9
$DIMLFAC
  40
1
  9
$INSBASE
  10
0.0
  20
0.0
  30
0.0
  9
$EXTMIN
  10
-6.625416945973
  20
-1.529945608633
  9
$EXTMAX
  10
43.374583054026
  20
48.470054391367
  9
$LIMMIN
  10
-6.625416945973
  20
-1.529945608633
  9
$LIMMAX
  10
43.374583054026
  20
48.470054391367
  9
$CLAYER
  8
0
  0
ENDSEC
  0
SECTION
  2
TABLES
  0
TABLE
  2
LTYPE
  70
2
  0
LTYPE
  2
CONTINUOUS
  70
64
  3
Solid line
  72
65
  73
0
  40
0
  0
LTYPE
  2
DASHED
  70
64
  3
 _ _ _ _ _ _ _ _ _ _ _ _ _ _ _ _ _ _ _ _ _ _
  72
65
  73
2
  40
0.000001
  49
0.000001
  49
-0
  0
ENDTAB
  0
TABLE
  2
LAYER
  70
1
  0
LAYER
  2
0
  70
0
  62
7
  6
CONTINUOUS
  0
ENDTAB
  0
ENDSEC
  0
SECTION
  2
BLOCKS
  0
ENDSEC
  0
SECTION
  2
ENTITIES
  0
LINE
  8
0
  10
7.374583054027
  20
48.470054391367
  30
0.03937007874
  11
19.374583054026
  21
48.470054391367
  31
0.03937007874
  0
LINE
  8
0
  10
31.374583054026
  20
48.470054391367
  30
0.03937007874
  11
43.374583054026
  21
48.470054391367
  31
0.03937007874
  0
LINE
  8
0
  10
31.374583054026
  20
12.470054391367
  30
0.03937007874
  11
43.374583054026
  21
0.470054391367
  31
0.03937007874
  0
ARC
  8
0
  10
-2.625408935062
  20
42.470054391367
  30
0.03937007874
  40
0.75
  50
300
  51
600
  0
LINE
  8
0
  10
-2.250408935062
  20
41.820535338529
  30
0.03937007874
  11
-2.250408935062
  21
36.470054391367
  31
0.03937007874
  0
LINE
  8
0
  10
-3.000408935062
  20
36.470054391367
  30
0.03937007874
  11
-3.000408935062
  21
41.820535338529
  31
0.03937007874
  0
LINE
  8
0
  10
-4.625416945973
  20
48.470054391367
  30
0.03937007874
  11
-2.625416945973
  21
48.470054391367
  31
0.03937007874
  0
LINE
  8
0
  10
-2.625416945973
  20
48.470054391367
  30
0.03937007874
  11
7.374583054027
  21
48.470054391367
  31
0.03937007874
  0
ARC
  8
0
  10
-2.62540092415
  20
30.470054391367
  30
0.03937007874
  40
0.75
  50
300
  51
600
  0
LINE
  8
0
  10
-3.00040092415
  20
24.470054391367
  30
0.03937007874
  11
-3.00040092415
  21
29.820535338529
  31
0.03937007874
  0
LINE
  8
0
  10
-2.25040092415
  20
29.820535338529
  30
0.03937007874
  11
-2.25040092415
  21
24.470054391367
  31
0.03937007874
  0
ARC
  8
0
  10
-2.625392913238
  20
18.470054391367
  30
0.03937007874
  40
0.75
  50
300
  51
600
  0
LINE
  8
0
  10
-3.000392913238
  20
12.470054391367
  30
0.03937007874
  11
-3.000392913238
  21
17.820535338529
  31
0.03937007874
  0
LINE
  8
0
  10
-2.250392913238
  20
17.820535338529
  30
0.03937007874
  11
-2.250392913238
  21
12.470054391367
  31
0.03937007874
  0
LINE
  8
0
  10
19.374583054026
  20
48.470054391367
  30
0.03937007874
  11
29.374583054026
  21
48.470054391367
  31
0.03937007874
  0
LINE
  8
0
  10
29.374583054026
  20
48.470054391367
  30
0.03937007874
  11
31.374583054026
  21
48.470054391367
  31
0.03937007874
  0
ARC
  8
0
  10
29.374591064938
  20
42.470054391367
  30
0.03937007874
  40
0.75
  50
300
  51
600
  0
LINE
  8
0
  10
28.999591064938
  20
36.470054391367
  30
0.03937007874
  11
28.999591064938
  21
41.820535338529
  31
0.03937007874
  0
LINE
  8
0
  10
29.749591064938
  20
41.820535338529
  30
0.03937007874
  11
29.749591064938
  21
36.470054391367
  31
0.03937007874
  0
ARC
  8
0
  10
29.37459907585
  20
30.470054391367
  30
0.03937007874
  40
0.75
  50
300
  51
600
  0
LINE
  8
0
  10
28.99959907585
  20
24.470054391367
  30
0.03937007874
  11
28.99959907585
  21
29.820535338529
  31
0.03937007874
  0
LINE
  8
0
  10
29.74959907585
  20
29.820535338529
  30
0.03937007874
  11
29.74959907585
  21
24.470054391367
  31
0.03937007874
  0
ARC
  8
0
  10
29.374607086762
  20
18.470054391367
  30
0.03937007874
  40
0.75
  50
300
  51
600
  0
LINE
  8
0
  10
28.999607086762
  20
12.470054391367
  30
0.03937007874
  11
28.999607086762
  21
17.820535338529
  31
0.03937007874
  0
LINE
  8
0
  10
29.749607086762
  20
17.820535338529
  30
0.03937007874
  11
29.749607086762
  21
12.470054391367
  31
0.03937007874
  0
LINE
  8
0
  10
43.374583054026
  20
2.470054391367
  30
0.03937007874
  11
41.374583054026
  21
2.470054391367
  31
0.03937007874
  0
LINE
  8
0
  10
41.374583054026
  20
2.470054391367
  30
0.03937007874
  11
41.374583054026
  21
0.470054391367
  31
0.03937007874
  0
ARC
  8
0
  10
-2.625392913238
  20
6.470054391367
  30
0.03937007874
  40
0.75
  50
120
  51
420
  0
LINE
  8
0
  10
-3.000392913238
  20
12.470054391367
  30
0.03937007874
  11
-3.000392913238
  21
7.119573444205
  31
0.03937007874
  0
LINE
  8
0
  10
-2.250392913238
  20
7.119573444205
  30
0.03937007874
  11
-2.250392913238
  21
12.470054391367
  31
0.03937007874
  0
ARC
  8
0
  10
37.374583054026
  20
46.470054391367
  30
0.03937007874
  40
0.75
  50
210
  51
510
  0
LINE
  8
0
  10
31.374583054026
  20
46.845054391367
  30
0.03937007874
  11
36.725064001188
  21
46.845054391367
  31
0.03937007874
  0
LINE
  8
0
  10
36.725064001188
  20
46.095054391367
  30
0.03937007874
  11
31.374583054026
  21
46.095054391367
  31
0.03937007874
  0
ARC
  8
0
  10
37.374583054026
  20
31.803389504903
  30
0.03937007874
  40
0.75
  50
210
  51
510
  0
LINE
  8
0
  10
31.374583054026
  20
32.178389504903
  30
0.03937007874
  11
36.725064001188
  21
32.178389504903
  31
0.03937007874
  0
LINE
  8
0
  10
36.725064001188
  20
31.428389504903
  30
0.03937007874
  11
31.374583054026
  21
31.428389504903
  31
0.03937007874
  0
ARC
  8
0
  10
37.374583054026
  20
17.136719277831
  30
0.03937007874
  40
0.75
  50
210
  51
510
  0
LINE
  8
0
  10
31.374583054026
  20
17.511719277831
  30
0.03937007874
  11
36.725064001188
  21
17.511719277831
  31
0.03937007874
  0
LINE
  8
0
  10
36.725064001188
  20
16.761719277831
  30
0.03937007874
  11
31.374583054026
  21
16.761719277831
  31
0.03937007874
  0
ARC
  8
0
  10
12.04126841282
  20
6.470054391367
  30
0.03937007874
  40
0.75
  50
120
  51
420
  0
LINE
  8
0
  10
11.66626841282
  20
12.470054391367
  30
0.03937007874
  11
11.66626841282
  21
7.119573444205
  31
0.03937007874
  0
LINE
  8
0
  10
12.41626841282
  20
7.119573444205
  30
0.03937007874
  11
12.41626841282
  21
12.470054391367
  31
0.03937007874
  0
ARC
  8
0
  10
26.707924398272
  20
6.470054391367
  30
0.03937007874
  40
0.75
  50
120
  51
420
  0
LINE
  8
0
  10
26.332924398272
  20
12.470054391367
  30
0.03937007874
  11
26.332924398272
  21
7.119573444205
  31
0.03937007874
  0
LINE
  8
0
  10
27.082924398272
  20
7.119573444205
  30
0.03937007874
  11
27.082924398272
  21
12.470054391367
  31
0.03937007874
  0
CIRCLE
  8
0
  10
29.374607086762
  20
18.470054391367
  30
0.03937007874
  40
0.125
  0
CIRCLE
  8
0
  10
37.374583054026
  20
17.136719277831
  30
0.03937007874
  40
0.125
  0
CIRCLE
  8
0
  10
26.707924398272
  20
6.470054391367
  30
0.03937007874
  40
0.125
  0
CIRCLE
  8
0
  10
12.04126841282
  20
6.470054391367
  30
0.03937007874
  40
0.125
  0
CIRCLE
  8
0
  10
-2.625392913238
  20
6.470054391367
  30
0.03937007874
  40
0.125
  0
CIRCLE
  8
0
  10
-2.62540092415
  20
30.470054391367
  30
0.03937007874
  40
0.125
  0
CIRCLE
  8
0
  10
29.37459907585
  20
30.470054391367
  30
0.03937007874
  40
0.125
  0
CIRCLE
  8
0
  10
-2.625408935062
  20
42.470054391367
  30
0.03937007874
  40
0.125
  0
CIRCLE
  8
0
  10
29.374591064938
  20
42.470054391367
  30
0.03937007874
  40
0.125
  0
CIRCLE
  8
0
  10
37.374583054026
  20
46.470054391367
  30
0.03937007874
  40
0.125
  0
CIRCLE
  8
0
  10
37.374583054026
  20
31.803389504903
  30
0.03937007874
  40
0.125
  0
LINE
  8
0
  10
-4.625416945973
  20
36.470054391367
  30
0.03937007874
  11
31.374583054026
  21
36.470054391367
  31
0.03937007874
  0
LINE
  8
0
  10
-4.625416945973
  20
24.470054391367
  30
0.03937007874
  11
31.374583054026
  21
24.470054391367
  31
0.03937007874
  0
LINE
  8
0
  10
-4.625416945973
  20
12.470054391367
  30
0.03937007874
  11
31.374583054026
  21
12.470054391367
  31
0.03937007874
  0
LINE
  8
0
  10
-4.625416945973
  20
48.470054391367
  30
0.03937007874
  11
-4.625416945973
  21
0.470054391367
  31
0.03937007874
  0
LINE
  8
0
  10
31.374583054026
  20
48.470054391367
  30
0.03937007874
  11
31.374583054026
  21
12.470054391367
  31
0.03937007874
  0
LINE
  8
0
  10
43.374583054026
  20
48.470054391367
  30
0.03937007874
  11
43.374583054026
  21
0.470054391367
  31
0.03937007874
  0
LINE
  8
0
  10
-4.625416945973
  20
0.470054391367
  30
0.03937007874
  11
43.374583054026
  21
0.470054391367
  31
0.03937007874
  0
CIRCLE
  8
0
  10
-2.625392913238
  20
18.470054391367
  30
0.03937007874
  40
0.125
  0
LINE
  8
0
  10
-6.625416945973
  20
-0.529945608633
  30
0
  11
-6.625416945973
  21
-1.529945608633
  31
0
  0
LINE
  8
0
  10
-6.625416945973
  20
-0.529945608633
  30
0
  11
-5.625416945973
  21
-0.529945608633
  31
0
  0
LINE
  8
0
  10
-5.625416945973
  20
-1.529945608633
  30
0
  11
-5.625416945973
  21
-0.529945608633
  31
0
  0
LINE
  8
0
  10
-6.625416945973
  20
-1.529945608633
  30
0
  11
-5.625416945973
  21
-1.529945608633
  31
0
  0
TEXT
  8
0
  40
0.1
  72
0
  10
-6.326204347548
  20
-0.837032222806
  30
0
  1
1"x1"
  50
0
  0
TEXT
  8
0
  40
0.1
  72
0
  10
-6.349826394792
  20
-1.096874742491
  30
0
  1
scaling
  50
0
  0
TEXT
  8
0
  40
0.1
  72
0
  10
-6.416755528651
  20
-1.352780254302
  30
0
  1
reference
  50
0
  0
ENDSEC
  0
EOF
