  0
SECTION
  2
HEADER
  9
$ACADVER
  1
AC1009
  0
ENDSEC
  0
SECTION
  2
TABLES
  0
TABLE
  2
LTYPE
 70
     3
  0
LTYPE
  2
LINETYPE_1
 70
    64
  3
See CAD-STD manual for LINETYPE_1
 72
    65
 73
     0
 40
0.000000
  0
LTYPE
  2
LINETYPE_2
 70
    64
  3
See CAD-STD manual for LINETYPE_2
 72
    65
 73
     0
 40
0.000000
  0
LTYPE
  2
LINETYPE_3
 70
    64
  3
See CAD-STD manual for LINETYPE_3
 72
    65
 73
     2
 40
0.156200
 49
0.125000
 49
-0.031200
  0
LTYPE
  2
LINETYPE_4
 70
    64
  3
See CAD-STD manual for LINETYPE_4
 72
    65
 73
     4
 40
1.000000
 49
0.750000
 49
-0.062500
 49
0.125000
 49
-0.062500
  0
LTYPE
  2
LINETYPE_5
 70
    64
  3
See CAD-STD manual for LINETYPE_5
 72
    65
 73
     2
 40
0.312500
 49
0.250000
 49
-0.062500
  0
LTYPE
  2
LINETYPE_6
 70
    64
  3
See CAD-STD manual for LINETYPE_6
 72
    65
 73
     6
 40
1.187500
 49
0.750000
 49
-0.062500
 49
0.125000
 49
-0.062500
 49
0.125000
 49
-0.062500
  0
LTYPE
  2
LINETYPE_7
 70
    64
  3
See CAD-STD manual for LINETYPE_7
 72
    65
 73
     6
 40
1.187500
 49
0.750000
 49
-0.062500
 49
0.125000
 49
-0.062500
 49
0.125000
 49
-0.062500
  0
LTYPE
  2
LINETYPE_8
 70
    64
  3
See CAD-STD manual for LINETYPE_8
 72
    65
 73
     2
 40
0.125000
 49
0.062500
 49
-0.062500
  0
LTYPE
  2
LINETYPE_9
 70
    64
  3
See CAD-STD manual for LINETYPE_9
 72
    65
 73
     2
 40
0.062500
 49
0.000100
 49
-0.062400
  0
LTYPE
  2
LINETYPE_10
 70
    64
  3
See CAD-STD manual for LINETYPE_10
 72
    65
 73
     4
 40
0.562500
 49
0.375000
 49
-0.062500
 49
0.062500
 49
-0.062500
  0
LTYPE
  2
LINETYPE_11
 70
    64
  3
See CAD-STD manual for LINETYPE_11
 72
    65
 73
     0
 40
0.000000
  0
ENDTAB
  0
ENDSEC
  0
SECTION
  2
ENTITIES
  0
POLYLINE
  8
0
  6
LINETYPE_8
 66
     1
 10
0.0
 20
0.0
 30
0.0
  0
VERTEX
  8
0
 10
34.000000
 20
22.000000
 30
0.0
  0
VERTEX
  8
0
 10
34.000000
 20
46.000000
 30
0.0
  0
SEQEND
  0
POLYLINE
  8
0
  6
LINETYPE_8
 66
     1
 10
0.0
 20
0.0
 30
0.0
  0
VERTEX
  8
0
 10
31.000000
 20
22.000000
 30
0.0
  0
VERTEX
  8
0
 10
31.000000
 20
45.980800
 30
0.0
  0
SEQEND
  0
POLYLINE
  8
0
  6
LINETYPE_8
 66
     1
 10
0.0
 20
0.0
 30
0.0
  0
VERTEX
  8
0
 10
40.000000
 20
22.000000
 30
0.0
  0
VERTEX
  8
0
 10
40.000000
 20
45.980800
 30
0.0
  0
SEQEND
  0
POLYLINE
  8
0
  6
LINETYPE_8
 66
     1
 10
0.0
 20
0.0
 30
0.0
  0
VERTEX
  8
0
 10
43.000000
 20
22.000000
 30
0.0
  0
VERTEX
  8
0
 10
43.000000
 20
45.980800
 30
0.0
  0
SEQEND
  0
POLYLINE
  8
7
  6
LINETYPE_11
 40
0.009000
 41
0.009000
 66
     1
 10
0.0
 20
0.0
 30
0.0
  0
VERTEX
  8
7
 10
28.000000
 20
47.125000
 30
0.0
  0
VERTEX
  8
7
 10
28.000000
 20
46.875000
 30
0.0
  0
SEQEND
  0
POLYLINE
  8
7
  6
LINETYPE_11
 40
0.009000
 41
0.009000
 66
     1
 10
0.0
 20
0.0
 30
0.0
  0
VERTEX
  8
7
 10
46.000000
 20
47.125000
 30
0.0
  0
VERTEX
  8
7
 10
46.000000
 20
46.875000
 30
0.0
  0
SEQEND
  0
POLYLINE
  8
7
  6
LINETYPE_11
 40
0.009000
 41
0.009000
 66
     1
 10
0.0
 20
0.0
 30
0.0
  0
VERTEX
  8
7
 10
36.521900
 20
47.000000
 30
0.0
  0
VERTEX
  8
7
 10
28.000000
 20
47.000000
 30
0.0
  0
SEQEND
  0
POLYLINE
  8
7
  6
LINETYPE_11
 40
0.009000
 41
0.009000
 66
     1
 10
0.0
 20
0.0
 30
0.0
  0
VERTEX
  8
7
 10
28.125000
 20
47.025000
 30
0.0
  0
VERTEX
  8
7
 10
28.000000
 20
47.000000
 30
0.0
  0
SEQEND
  0
POLYLINE
  8
7
  6
LINETYPE_11
 40
0.009000
 41
0.009000
 66
     1
 10
0.0
 20
0.0
 30
0.0
  0
VERTEX
  8
7
 10
28.000000
 20
47.000000
 30
0.0
  0
VERTEX
  8
7
 10
28.125000
 20
46.975000
 30
0.0
  0
SEQEND
  0
POLYLINE
  8
7
  6
LINETYPE_11
 40
0.009000
 41
0.009000
 66
     1
 10
0.0
 20
0.0
 30
0.0
  0
VERTEX
  8
7
 10
37.478100
 20
47.000000
 30
0.0
  0
VERTEX
  8
7
 10
46.000000
 20
47.000000
 30
0.0
  0
SEQEND
  0
POLYLINE
  8
7
  6
LINETYPE_11
 40
0.009000
 41
0.009000
 66
     1
 10
0.0
 20
0.0
 30
0.0
  0
VERTEX
  8
7
 10
45.875000
 20
46.975000
 30
0.0
  0
VERTEX
  8
7
 10
46.000000
 20
47.000000
 30
0.0
  0
SEQEND
  0
POLYLINE
  8
7
  6
LINETYPE_11
 40
0.009000
 41
0.009000
 66
     1
 10
0.0
 20
0.0
 30
0.0
  0
VERTEX
  8
7
 10
46.000000
 20
47.000000
 30
0.0
  0
VERTEX
  8
7
 10
45.875000
 20
47.025000
 30
0.0
  0
SEQEND
  0
TEXT
  8
7
 10
36.583900
 20
46.921900
 30
0.0
 40
0.156200
  1
18.000
 50
0.000000
  0
POLYLINE
  8
7
  6
LINETYPE_11
 40
0.009000
 41
0.009000
 66
     1
 10
0.0
 20
0.0
 30
0.0
  0
VERTEX
  8
7
 10
46.875000
 20
43.000000
 30
0.0
  0
VERTEX
  8
7
 10
47.125000
 20
43.000000
 30
0.0
  0
SEQEND
  0
POLYLINE
  8
7
  6
LINETYPE_11
 40
0.009000
 41
0.009000
 66
     1
 10
0.0
 20
0.0
 30
0.0
  0
VERTEX
  8
7
 10
46.875000
 20
46.000000
 30
0.0
  0
VERTEX
  8
7
 10
47.125000
 20
46.000000
 30
0.0
  0
SEQEND
  0
POLYLINE
  8
7
  6
LINETYPE_11
 40
0.009000
 41
0.009000
 66
     1
 10
0.0
 20
0.0
 30
0.0
  0
VERTEX
  8
7
 10
47.000000
 20
44.359900
 30
0.0
  0
VERTEX
  8
7
 10
47.000000
 20
43.000000
 30
0.0
  0
SEQEND
  0
POLYLINE
  8
7
  6
LINETYPE_11
 40
0.009000
 41
0.009000
 66
     1
 10
0.0
 20
0.0
 30
0.0
  0
VERTEX
  8
7
 10
46.975000
 20
43.125000
 30
0.0
  0
VERTEX
  8
7
 10
47.000000
 20
43.000000
 30
0.0
  0
SEQEND
  0
POLYLINE
  8
7
  6
LINETYPE_11
 40
0.009000
 41
0.009000
 66
     1
 10
0.0
 20
0.0
 30
0.0
  0
VERTEX
  8
7
 10
47.000000
 20
43.000000
 30
0.0
  0
VERTEX
  8
7
 10
47.025000
 20
43.125000
 30
0.0
  0
SEQEND
  0
POLYLINE
  8
7
  6
LINETYPE_11
 40
0.009000
 41
0.009000
 66
     1
 10
0.0
 20
0.0
 30
0.0
  0
VERTEX
  8
7
 10
47.000000
 20
44.640100
 30
0.0
  0
VERTEX
  8
7
 10
47.000000
 20
46.000000
 30
0.0
  0
SEQEND
  0
POLYLINE
  8
7
  6
LINETYPE_11
 40
0.009000
 41
0.009000
 66
     1
 10
0.0
 20
0.0
 30
0.0
  0
VERTEX
  8
7
 10
47.025000
 20
45.875000
 30
0.0
  0
VERTEX
  8
7
 10
47.000000
 20
46.000000
 30
0.0
  0
SEQEND
  0
POLYLINE
  8
7
  6
LINETYPE_11
 40
0.009000
 41
0.009000
 66
     1
 10
0.0
 20
0.0
 30
0.0
  0
VERTEX
  8
7
 10
47.000000
 20
46.000000
 30
0.0
  0
VERTEX
  8
7
 10
46.975000
 20
45.875000
 30
0.0
  0
SEQEND
  0
TEXT
  8
7
 10
46.659600
 20
44.421900
 30
0.0
 40
0.156200
  1
3.000
 50
0.000000
  0
POLYLINE
  8
7
  6
LINETYPE_11
 40
0.009000
 41
0.009000
 66
     1
 10
0.0
 20
0.0
 30
0.0
  0
VERTEX
  8
7
 10
46.875000
 20
37.000000
 30
0.0
  0
VERTEX
  8
7
 10
47.125000
 20
37.000000
 30
0.0
  0
SEQEND
  0
POLYLINE
  8
7
  6
LINETYPE_11
 40
0.009000
 41
0.009000
 66
     1
 10
0.0
 20
0.0
 30
0.0
  0
VERTEX
  8
7
 10
46.875000
 20
43.000000
 30
0.0
  0
VERTEX
  8
7
 10
47.125000
 20
43.000000
 30
0.0
  0
SEQEND
  0
POLYLINE
  8
7
  6
LINETYPE_11
 40
0.009000
 41
0.009000
 66
     1
 10
0.0
 20
0.0
 30
0.0
  0
VERTEX
  8
7
 10
47.000000
 20
39.859900
 30
0.0
  0
VERTEX
  8
7
 10
47.000000
 20
37.000000
 30
0.0
  0
SEQEND
  0
POLYLINE
  8
7
  6
LINETYPE_11
 40
0.009000
 41
0.009000
 66
     1
 10
0.0
 20
0.0
 30
0.0
  0
VERTEX
  8
7
 10
46.975000
 20
37.125000
 30
0.0
  0
VERTEX
  8
7
 10
47.000000
 20
37.000000
 30
0.0
  0
SEQEND
  0
POLYLINE
  8
7
  6
LINETYPE_11
 40
0.009000
 41
0.009000
 66
     1
 10
0.0
 20
0.0
 30
0.0
  0
VERTEX
  8
7
 10
47.000000
 20
37.000000
 30
0.0
  0
VERTEX
  8
7
 10
47.025000
 20
37.125000
 30
0.0
  0
SEQEND
  0
POLYLINE
  8
7
  6
LINETYPE_11
 40
0.009000
 41
0.009000
 66
     1
 10
0.0
 20
0.0
 30
0.0
  0
VERTEX
  8
7
 10
47.000000
 20
40.140100
 30
0.0
  0
VERTEX
  8
7
 10
47.000000
 20
43.000000
 30
0.0
  0
SEQEND
  0
POLYLINE
  8
7
  6
LINETYPE_11
 40
0.009000
 41
0.009000
 66
     1
 10
0.0
 20
0.0
 30
0.0
  0
VERTEX
  8
7
 10
47.025000
 20
42.875000
 30
0.0
  0
VERTEX
  8
7
 10
47.000000
 20
43.000000
 30
0.0
  0
SEQEND
  0
POLYLINE
  8
7
  6
LINETYPE_11
 40
0.009000
 41
0.009000
 66
     1
 10
0.0
 20
0.0
 30
0.0
  0
VERTEX
  8
7
 10
47.000000
 20
43.000000
 30
0.0
  0
VERTEX
  8
7
 10
46.975000
 20
42.875000
 30
0.0
  0
SEQEND
  0
TEXT
  8
7
 10
46.659600
 20
39.921900
 30
0.0
 40
0.156200
  1
6.000
 50
0.000000
  0
POLYLINE
  8
7
  6
LINETYPE_11
 40
0.009000
 41
0.009000
 66
     1
 10
0.0
 20
0.0
 30
0.0
  0
VERTEX
  8
7
 10
46.875000
 20
31.000000
 30
0.0
  0
VERTEX
  8
7
 10
47.125000
 20
31.000000
 30
0.0
  0
SEQEND
  0
POLYLINE
  8
7
  6
LINETYPE_11
 40
0.009000
 41
0.009000
 66
     1
 10
0.0
 20
0.0
 30
0.0
  0
VERTEX
  8
7
 10
46.875000
 20
37.000000
 30
0.0
  0
VERTEX
  8
7
 10
47.125000
 20
37.000000
 30
0.0
  0
SEQEND
  0
POLYLINE
  8
7
  6
LINETYPE_11
 40
0.009000
 41
0.009000
 66
     1
 10
0.0
 20
0.0
 30
0.0
  0
VERTEX
  8
7
 10
47.000000
 20
33.859900
 30
0.0
  0
VERTEX
  8
7
 10
47.000000
 20
31.000000
 30
0.0
  0
SEQEND
  0
POLYLINE
  8
7
  6
LINETYPE_11
 40
0.009000
 41
0.009000
 66
     1
 10
0.0
 20
0.0
 30
0.0
  0
VERTEX
  8
7
 10
46.975000
 20
31.125000
 30
0.0
  0
VERTEX
  8
7
 10
47.000000
 20
31.000000
 30
0.0
  0
SEQEND
  0
POLYLINE
  8
7
  6
LINETYPE_11
 40
0.009000
 41
0.009000
 66
     1
 10
0.0
 20
0.0
 30
0.0
  0
VERTEX
  8
7
 10
47.000000
 20
31.000000
 30
0.0
  0
VERTEX
  8
7
 10
47.025000
 20
31.125000
 30
0.0
  0
SEQEND
  0
POLYLINE
  8
7
  6
LINETYPE_11
 40
0.009000
 41
0.009000
 66
     1
 10
0.0
 20
0.0
 30
0.0
  0
VERTEX
  8
7
 10
47.000000
 20
34.140100
 30
0.0
  0
VERTEX
  8
7
 10
47.000000
 20
37.000000
 30
0.0
  0
SEQEND
  0
POLYLINE
  8
7
  6
LINETYPE_11
 40
0.009000
 41
0.009000
 66
     1
 10
0.0
 20
0.0
 30
0.0
  0
VERTEX
  8
7
 10
47.025000
 20
36.875000
 30
0.0
  0
VERTEX
  8
7
 10
47.000000
 20
37.000000
 30
0.0
  0
SEQEND
  0
POLYLINE
  8
7
  6
LINETYPE_11
 40
0.009000
 41
0.009000
 66
     1
 10
0.0
 20
0.0
 30
0.0
  0
VERTEX
  8
7
 10
47.000000
 20
37.000000
 30
0.0
  0
VERTEX
  8
7
 10
46.975000
 20
36.875000
 30
0.0
  0
SEQEND
  0
TEXT
  8
7
 10
46.659600
 20
33.921900
 30
0.0
 40
0.156200
  1
6.000
 50
0.000000
  0
POLYLINE
  8
7
  6
LINETYPE_11
 40
0.009000
 41
0.009000
 66
     1
 10
0.0
 20
0.0
 30
0.0
  0
VERTEX
  8
7
 10
46.875000
 20
25.000000
 30
0.0
  0
VERTEX
  8
7
 10
47.125000
 20
25.000000
 30
0.0
  0
SEQEND
  0
POLYLINE
  8
7
  6
LINETYPE_11
 40
0.009000
 41
0.009000
 66
     1
 10
0.0
 20
0.0
 30
0.0
  0
VERTEX
  8
7
 10
46.875000
 20
31.000000
 30
0.0
  0
VERTEX
  8
7
 10
47.125000
 20
31.000000
 30
0.0
  0
SEQEND
  0
POLYLINE
  8
7
  6
LINETYPE_11
 40
0.009000
 41
0.009000
 66
     1
 10
0.0
 20
0.0
 30
0.0
  0
VERTEX
  8
7
 10
47.000000
 20
27.859900
 30
0.0
  0
VERTEX
  8
7
 10
47.000000
 20
25.000000
 30
0.0
  0
SEQEND
  0
POLYLINE
  8
7
  6
LINETYPE_11
 40
0.009000
 41
0.009000
 66
     1
 10
0.0
 20
0.0
 30
0.0
  0
VERTEX
  8
7
 10
46.975000
 20
25.125000
 30
0.0
  0
VERTEX
  8
7
 10
47.000000
 20
25.000000
 30
0.0
  0
SEQEND
  0
POLYLINE
  8
7
  6
LINETYPE_11
 40
0.009000
 41
0.009000
 66
     1
 10
0.0
 20
0.0
 30
0.0
  0
VERTEX
  8
7
 10
47.000000
 20
25.000000
 30
0.0
  0
VERTEX
  8
7
 10
47.025000
 20
25.125000
 30
0.0
  0
SEQEND
  0
POLYLINE
  8
7
  6
LINETYPE_11
 40
0.009000
 41
0.009000
 66
     1
 10
0.0
 20
0.0
 30
0.0
  0
VERTEX
  8
7
 10
47.000000
 20
28.140100
 30
0.0
  0
VERTEX
  8
7
 10
47.000000
 20
31.000000
 30
0.0
  0
SEQEND
  0
POLYLINE
  8
7
  6
LINETYPE_11
 40
0.009000
 41
0.009000
 66
     1
 10
0.0
 20
0.0
 30
0.0
  0
VERTEX
  8
7
 10
47.025000
 20
30.875000
 30
0.0
  0
VERTEX
  8
7
 10
47.000000
 20
31.000000
 30
0.0
  0
SEQEND
  0
POLYLINE
  8
7
  6
LINETYPE_11
 40
0.009000
 41
0.009000
 66
     1
 10
0.0
 20
0.0
 30
0.0
  0
VERTEX
  8
7
 10
47.000000
 20
31.000000
 30
0.0
  0
VERTEX
  8
7
 10
46.975000
 20
30.875000
 30
0.0
  0
SEQEND
  0
TEXT
  8
7
 10
46.659600
 20
27.921900
 30
0.0
 40
0.156200
  1
6.000
 50
0.000000
  0
POLYLINE
  8
7
  6
LINETYPE_11
 40
0.009000
 41
0.009000
 66
     1
 10
0.0
 20
0.0
 30
0.0
  0
VERTEX
  8
7
 10
46.875000
 20
22.000000
 30
0.0
  0
VERTEX
  8
7
 10
47.125000
 20
22.000000
 30
0.0
  0
SEQEND
  0
POLYLINE
  8
7
  6
LINETYPE_11
 40
0.009000
 41
0.009000
 66
     1
 10
0.0
 20
0.0
 30
0.0
  0
VERTEX
  8
7
 10
46.875000
 20
25.000000
 30
0.0
  0
VERTEX
  8
7
 10
47.125000
 20
25.000000
 30
0.0
  0
SEQEND
  0
POLYLINE
  8
7
  6
LINETYPE_11
 40
0.009000
 41
0.009000
 66
     1
 10
0.0
 20
0.0
 30
0.0
  0
VERTEX
  8
7
 10
47.000000
 20
23.359900
 30
0.0
  0
VERTEX
  8
7
 10
47.000000
 20
22.000000
 30
0.0
  0
SEQEND
  0
POLYLINE
  8
7
  6
LINETYPE_11
 40
0.009000
 41
0.009000
 66
     1
 10
0.0
 20
0.0
 30
0.0
  0
VERTEX
  8
7
 10
46.975000
 20
22.125000
 30
0.0
  0
VERTEX
  8
7
 10
47.000000
 20
22.000000
 30
0.0
  0
SEQEND
  0
POLYLINE
  8
7
  6
LINETYPE_11
 40
0.009000
 41
0.009000
 66
     1
 10
0.0
 20
0.0
 30
0.0
  0
VERTEX
  8
7
 10
47.000000
 20
22.000000
 30
0.0
  0
VERTEX
  8
7
 10
47.025000
 20
22.125000
 30
0.0
  0
SEQEND
  0
POLYLINE
  8
7
  6
LINETYPE_11
 40
0.009000
 41
0.009000
 66
     1
 10
0.0
 20
0.0
 30
0.0
  0
VERTEX
  8
7
 10
47.000000
 20
23.640100
 30
0.0
  0
VERTEX
  8
7
 10
47.000000
 20
25.000000
 30
0.0
  0
SEQEND
  0
POLYLINE
  8
7
  6
LINETYPE_11
 40
0.009000
 41
0.009000
 66
     1
 10
0.0
 20
0.0
 30
0.0
  0
VERTEX
  8
7
 10
47.025000
 20
24.875000
 30
0.0
  0
VERTEX
  8
7
 10
47.000000
 20
25.000000
 30
0.0
  0
SEQEND
  0
POLYLINE
  8
7
  6
LINETYPE_11
 40
0.009000
 41
0.009000
 66
     1
 10
0.0
 20
0.0
 30
0.0
  0
VERTEX
  8
7
 10
47.000000
 20
25.000000
 30
0.0
  0
VERTEX
  8
7
 10
46.975000
 20
24.875000
 30
0.0
  0
SEQEND
  0
TEXT
  8
7
 10
46.659600
 20
23.421900
 30
0.0
 40
0.156200
  1
3.000
 50
0.000000
  0
POLYLINE
  8
7
  6
LINETYPE_11
 40
0.009000
 41
0.009000
 66
     1
 10
0.0
 20
0.0
 30
0.0
  0
VERTEX
  8
7
 10
28.000000
 20
21.125000
 30
0.0
  0
VERTEX
  8
7
 10
28.000000
 20
20.875000
 30
0.0
  0
SEQEND
  0
POLYLINE
  8
7
  6
LINETYPE_11
 40
0.009000
 41
0.009000
 66
     1
 10
0.0
 20
0.0
 30
0.0
  0
VERTEX
  8
7
 10
37.000000
 20
21.125000
 30
0.0
  0
VERTEX
  8
7
 10
37.000000
 20
20.875000
 30
0.0
  0
SEQEND
  0
POLYLINE
  8
7
  6
LINETYPE_11
 40
0.009000
 41
0.009000
 66
     1
 10
0.0
 20
0.0
 30
0.0
  0
VERTEX
  8
7
 10
32.095900
 20
21.000000
 30
0.0
  0
VERTEX
  8
7
 10
28.000000
 20
21.000000
 30
0.0
  0
SEQEND
  0
POLYLINE
  8
7
  6
LINETYPE_11
 40
0.009000
 41
0.009000
 66
     1
 10
0.0
 20
0.0
 30
0.0
  0
VERTEX
  8
7
 10
28.125000
 20
21.025000
 30
0.0
  0
VERTEX
  8
7
 10
28.000000
 20
21.000000
 30
0.0
  0
SEQEND
  0
POLYLINE
  8
7
  6
LINETYPE_11
 40
0.009000
 41
0.009000
 66
     1
 10
0.0
 20
0.0
 30
0.0
  0
VERTEX
  8
7
 10
28.000000
 20
21.000000
 30
0.0
  0
VERTEX
  8
7
 10
28.125000
 20
20.975000
 30
0.0
  0
SEQEND
  0
POLYLINE
  8
7
  6
LINETYPE_11
 40
0.009000
 41
0.009000
 66
     1
 10
0.0
 20
0.0
 30
0.0
  0
VERTEX
  8
7
 10
32.904100
 20
21.000000
 30
0.0
  0
VERTEX
  8
7
 10
37.000000
 20
21.000000
 30
0.0
  0
SEQEND
  0
POLYLINE
  8
7
  6
LINETYPE_11
 40
0.009000
 41
0.009000
 66
     1
 10
0.0
 20
0.0
 30
0.0
  0
VERTEX
  8
7
 10
36.875000
 20
20.975000
 30
0.0
  0
VERTEX
  8
7
 10
37.000000
 20
21.000000
 30
0.0
  0
SEQEND
  0
POLYLINE
  8
7
  6
LINETYPE_11
 40
0.009000
 41
0.009000
 66
     1
 10
0.0
 20
0.0
 30
0.0
  0
VERTEX
  8
7
 10
37.000000
 20
21.000000
 30
0.0
  0
VERTEX
  8
7
 10
36.875000
 20
21.025000
 30
0.0
  0
SEQEND
  0
TEXT
  8
7
 10
32.157900
 20
20.921900
 30
0.0
 40
0.156200
  1
9.000
 50
0.000000
  0
POLYLINE
  8
7
  6
LINETYPE_11
 40
0.009000
 41
0.009000
 66
     1
 10
0.0
 20
0.0
 30
0.0
  0
VERTEX
  8
7
 10
37.000000
 20
21.125000
 30
0.0
  0
VERTEX
  8
7
 10
37.000000
 20
20.875000
 30
0.0
  0
SEQEND
  0
POLYLINE
  8
7
  6
LINETYPE_11
 40
0.009000
 41
0.009000
 66
     1
 10
0.0
 20
0.0
 30
0.0
  0
VERTEX
  8
7
 10
40.000000
 20
21.125000
 30
0.0
  0
VERTEX
  8
7
 10
40.000000
 20
20.875000
 30
0.0
  0
SEQEND
  0
POLYLINE
  8
7
  6
LINETYPE_11
 40
0.009000
 41
0.009000
 66
     1
 10
0.0
 20
0.0
 30
0.0
  0
VERTEX
  8
7
 10
38.097600
 20
21.000000
 30
0.0
  0
VERTEX
  8
7
 10
37.000000
 20
21.000000
 30
0.0
  0
SEQEND
  0
POLYLINE
  8
7
  6
LINETYPE_11
 40
0.009000
 41
0.009000
 66
     1
 10
0.0
 20
0.0
 30
0.0
  0
VERTEX
  8
7
 10
37.125000
 20
21.025000
 30
0.0
  0
VERTEX
  8
7
 10
37.000000
 20
21.000000
 30
0.0
  0
SEQEND
  0
POLYLINE
  8
7
  6
LINETYPE_11
 40
0.009000
 41
0.009000
 66
     1
 10
0.0
 20
0.0
 30
0.0
  0
VERTEX
  8
7
 10
37.000000
 20
21.000000
 30
0.0
  0
VERTEX
  8
7
 10
37.125000
 20
20.975000
 30
0.0
  0
SEQEND
  0
POLYLINE
  8
7
  6
LINETYPE_11
 40
0.009000
 41
0.009000
 66
     1
 10
0.0
 20
0.0
 30
0.0
  0
VERTEX
  8
7
 10
38.902400
 20
21.000000
 30
0.0
  0
VERTEX
  8
7
 10
40.000000
 20
21.000000
 30
0.0
  0
SEQEND
  0
POLYLINE
  8
7
  6
LINETYPE_11
 40
0.009000
 41
0.009000
 66
     1
 10
0.0
 20
0.0
 30
0.0
  0
VERTEX
  8
7
 10
39.875000
 20
20.975000
 30
0.0
  0
VERTEX
  8
7
 10
40.000000
 20
21.000000
 30
0.0
  0
SEQEND
  0
POLYLINE
  8
7
  6
LINETYPE_11
 40
0.009000
 41
0.009000
 66
     1
 10
0.0
 20
0.0
 30
0.0
  0
VERTEX
  8
7
 10
40.000000
 20
21.000000
 30
0.0
  0
VERTEX
  8
7
 10
39.875000
 20
21.025000
 30
0.0
  0
SEQEND
  0
TEXT
  8
7
 10
38.159600
 20
20.921900
 30
0.0
 40
0.156200
  1
3.000
 50
0.000000
  0
POLYLINE
  8
7
  6
LINETYPE_11
 40
0.009000
 41
0.009000
 66
     1
 10
0.0
 20
0.0
 30
0.0
  0
VERTEX
  8
7
 10
40.000000
 20
21.125000
 30
0.0
  0
VERTEX
  8
7
 10
40.000000
 20
20.875000
 30
0.0
  0
SEQEND
  0
POLYLINE
  8
7
  6
LINETYPE_11
 40
0.009000
 41
0.009000
 66
     1
 10
0.0
 20
0.0
 30
0.0
  0
VERTEX
  8
7
 10
43.000000
 20
21.125000
 30
0.0
  0
VERTEX
  8
7
 10
43.000000
 20
20.875000
 30
0.0
  0
SEQEND
  0
POLYLINE
  8
7
  6
LINETYPE_11
 40
0.009000
 41
0.009000
 66
     1
 10
0.0
 20
0.0
 30
0.0
  0
VERTEX
  8
7
 10
41.097600
 20
21.000000
 30
0.0
  0
VERTEX
  8
7
 10
40.000000
 20
21.000000
 30
0.0
  0
SEQEND
  0
POLYLINE
  8
7
  6
LINETYPE_11
 40
0.009000
 41
0.009000
 66
     1
 10
0.0
 20
0.0
 30
0.0
  0
VERTEX
  8
7
 10
40.125000
 20
21.025000
 30
0.0
  0
VERTEX
  8
7
 10
40.000000
 20
21.000000
 30
0.0
  0
SEQEND
  0
POLYLINE
  8
7
  6
LINETYPE_11
 40
0.009000
 41
0.009000
 66
     1
 10
0.0
 20
0.0
 30
0.0
  0
VERTEX
  8
7
 10
40.000000
 20
21.000000
 30
0.0
  0
VERTEX
  8
7
 10
40.125000
 20
20.975000
 30
0.0
  0
SEQEND
  0
POLYLINE
  8
7
  6
LINETYPE_11
 40
0.009000
 41
0.009000
 66
     1
 10
0.0
 20
0.0
 30
0.0
  0
VERTEX
  8
7
 10
41.902400
 20
21.000000
 30
0.0
  0
VERTEX
  8
7
 10
43.000000
 20
21.000000
 30
0.0
  0
SEQEND
  0
POLYLINE
  8
7
  6
LINETYPE_11
 40
0.009000
 41
0.009000
 66
     1
 10
0.0
 20
0.0
 30
0.0
  0
VERTEX
  8
7
 10
42.875000
 20
20.975000
 30
0.0
  0
VERTEX
  8
7
 10
43.000000
 20
21.000000
 30
0.0
  0
SEQEND
  0
POLYLINE
  8
7
  6
LINETYPE_11
 40
0.009000
 41
0.009000
 66
     1
 10
0.0
 20
0.0
 30
0.0
  0
VERTEX
  8
7
 10
43.000000
 20
21.000000
 30
0.0
  0
VERTEX
  8
7
 10
42.875000
 20
21.025000
 30
0.0
  0
SEQEND
  0
TEXT
  8
7
 10
41.159600
 20
20.921900
 30
0.0
 40
0.156200
  1
3.000
 50
0.000000
  0
POLYLINE
  8
7
  6
LINETYPE_11
 40
0.009000
 41
0.009000
 66
     1
 10
0.0
 20
0.0
 30
0.0
  0
VERTEX
  8
7
 10
43.000000
 20
21.125000
 30
0.0
  0
VERTEX
  8
7
 10
43.000000
 20
20.875000
 30
0.0
  0
SEQEND
  0
POLYLINE
  8
7
  6
LINETYPE_11
 40
0.009000
 41
0.009000
 66
     1
 10
0.0
 20
0.0
 30
0.0
  0
VERTEX
  8
7
 10
46.000000
 20
21.125000
 30
0.0
  0
VERTEX
  8
7
 10
46.000000
 20
20.875000
 30
0.0
  0
SEQEND
  0
POLYLINE
  8
7
  6
LINETYPE_11
 40
0.009000
 41
0.009000
 66
     1
 10
0.0
 20
0.0
 30
0.0
  0
VERTEX
  8
7
 10
44.097600
 20
21.000000
 30
0.0
  0
VERTEX
  8
7
 10
43.000000
 20
21.000000
 30
0.0
  0
SEQEND
  0
POLYLINE
  8
7
  6
LINETYPE_11
 40
0.009000
 41
0.009000
 66
     1
 10
0.0
 20
0.0
 30
0.0
  0
VERTEX
  8
7
 10
43.125000
 20
21.025000
 30
0.0
  0
VERTEX
  8
7
 10
43.000000
 20
21.000000
 30
0.0
  0
SEQEND
  0
POLYLINE
  8
7
  6
LINETYPE_11
 40
0.009000
 41
0.009000
 66
     1
 10
0.0
 20
0.0
 30
0.0
  0
VERTEX
  8
7
 10
43.000000
 20
21.000000
 30
0.0
  0
VERTEX
  8
7
 10
43.125000
 20
20.975000
 30
0.0
  0
SEQEND
  0
POLYLINE
  8
7
  6
LINETYPE_11
 40
0.009000
 41
0.009000
 66
     1
 10
0.0
 20
0.0
 30
0.0
  0
VERTEX
  8
7
 10
44.902400
 20
21.000000
 30
0.0
  0
VERTEX
  8
7
 10
46.000000
 20
21.000000
 30
0.0
  0
SEQEND
  0
POLYLINE
  8
7
  6
LINETYPE_11
 40
0.009000
 41
0.009000
 66
     1
 10
0.0
 20
0.0
 30
0.0
  0
VERTEX
  8
7
 10
45.875000
 20
20.975000
 30
0.0
  0
VERTEX
  8
7
 10
46.000000
 20
21.000000
 30
0.0
  0
SEQEND
  0
POLYLINE
  8
7
  6
LINETYPE_11
 40
0.009000
 41
0.009000
 66
     1
 10
0.0
 20
0.0
 30
0.0
  0
VERTEX
  8
7
 10
46.000000
 20
21.000000
 30
0.0
  0
VERTEX
  8
7
 10
45.875000
 20
21.025000
 30
0.0
  0
SEQEND
  0
TEXT
  8
7
 10
44.159600
 20
20.921900
 30
0.0
 40
0.156200
  1
3.000
 50
0.000000
  0
POLYLINE
  8
7
  6
LINETYPE_11
 40
0.009000
 41
0.009000
 66
     1
 10
0.0
 20
0.0
 30
0.0
  0
VERTEX
  8
7
 10
26.875000
 20
22.000000
 30
0.0
  0
VERTEX
  8
7
 10
27.125000
 20
22.000000
 30
0.0
  0
SEQEND
  0
POLYLINE
  8
7
  6
LINETYPE_11
 40
0.009000
 41
0.009000
 66
     1
 10
0.0
 20
0.0
 30
0.0
  0
VERTEX
  8
7
 10
26.875000
 20
46.000000
 30
0.0
  0
VERTEX
  8
7
 10
27.125000
 20
46.000000
 30
0.0
  0
SEQEND
  0
POLYLINE
  8
7
  6
LINETYPE_11
 40
0.009000
 41
0.009000
 66
     1
 10
0.0
 20
0.0
 30
0.0
  0
VERTEX
  8
7
 10
27.000000
 20
33.859900
 30
0.0
  0
VERTEX
  8
7
 10
27.000000
 20
22.000000
 30
0.0
  0
SEQEND
  0
POLYLINE
  8
7
  6
LINETYPE_11
 40
0.009000
 41
0.009000
 66
     1
 10
0.0
 20
0.0
 30
0.0
  0
VERTEX
  8
7
 10
26.975000
 20
22.125000
 30
0.0
  0
VERTEX
  8
7
 10
27.000000
 20
22.000000
 30
0.0
  0
SEQEND
  0
POLYLINE
  8
7
  6
LINETYPE_11
 40
0.009000
 41
0.009000
 66
     1
 10
0.0
 20
0.0
 30
0.0
  0
VERTEX
  8
7
 10
27.000000
 20
22.000000
 30
0.0
  0
VERTEX
  8
7
 10
27.025000
 20
22.125000
 30
0.0
  0
SEQEND
  0
POLYLINE
  8
7
  6
LINETYPE_11
 40
0.009000
 41
0.009000
 66
     1
 10
0.0
 20
0.0
 30
0.0
  0
VERTEX
  8
7
 10
27.000000
 20
34.140100
 30
0.0
  0
VERTEX
  8
7
 10
27.000000
 20
46.000000
 30
0.0
  0
SEQEND
  0
POLYLINE
  8
7
  6
LINETYPE_11
 40
0.009000
 41
0.009000
 66
     1
 10
0.0
 20
0.0
 30
0.0
  0
VERTEX
  8
7
 10
27.025000
 20
45.875000
 30
0.0
  0
VERTEX
  8
7
 10
27.000000
 20
46.000000
 30
0.0
  0
SEQEND
  0
POLYLINE
  8
7
  6
LINETYPE_11
 40
0.009000
 41
0.009000
 66
     1
 10
0.0
 20
0.0
 30
0.0
  0
VERTEX
  8
7
 10
27.000000
 20
46.000000
 30
0.0
  0
VERTEX
  8
7
 10
26.975000
 20
45.875000
 30
0.0
  0
SEQEND
  0
TEXT
  8
7
 10
26.581500
 20
33.921900
 30
0.0
 40
0.156200
  1
24.000
 50
0.000000
  0
TEXT
  8
0
 10
1.500000
 20
47.000000
 30
0.0
 40
0.312300
  1
STREET SPAM LOUNGER
 50
0.000000
  0
TEXT
  8
0
 10
1.500000
 20
46.000000
 30
0.0
 40
0.312300
  1
Designed by Sean Michael Ragan
 50
0.000000
  0
TEXT
  8
0
 10
1.500000
 20
45.000000
 30
0.0
 40
0.312300
  1
http://www.iamanangelchaser.com
 50
0.000000
  0
POLYLINE
  8
7
  6
LINETYPE_11
 40
0.009000
 41
0.009000
 66
     1
 10
0.0
 20
0.0
 30
0.0
  0
VERTEX
  8
7
 10
13.045200
 20
3.017300
 30
0.0
  0
VERTEX
  8
7
 10
1.241800
 20
3.017300
 30
0.0
  0
SEQEND
  0
POLYLINE
  8
7
  6
LINETYPE_11
 40
0.009000
 41
0.009000
 66
     1
 10
0.0
 20
0.0
 30
0.0
  0
VERTEX
  8
7
 10
1.990700
 20
22.089200
 30
0.0
  0
VERTEX
  8
7
 10
1.241800
 20
22.089200
 30
0.0
  0
SEQEND
  0
POLYLINE
  8
7
  6
LINETYPE_11
 40
0.009000
 41
0.009000
 66
     1
 10
0.0
 20
0.0
 30
0.0
  0
VERTEX
  8
7
 10
1.366800
 20
11.891000
 30
0.0
  0
VERTEX
  8
7
 10
1.366800
 20
3.017300
 30
0.0
  0
SEQEND
  0
POLYLINE
  8
7
  6
LINETYPE_11
 40
0.009000
 41
0.009000
 66
     1
 10
0.0
 20
0.0
 30
0.0
  0
VERTEX
  8
7
 10
1.341800
 20
3.142300
 30
0.0
  0
VERTEX
  8
7
 10
1.366800
 20
3.017300
 30
0.0
  0
SEQEND
  0
POLYLINE
  8
7
  6
LINETYPE_11
 40
0.009000
 41
0.009000
 66
     1
 10
0.0
 20
0.0
 30
0.0
  0
VERTEX
  8
7
 10
1.366800
 20
3.017300
 30
0.0
  0
VERTEX
  8
7
 10
1.391800
 20
3.142300
 30
0.0
  0
SEQEND
  0
POLYLINE
  8
7
  6
LINETYPE_11
 40
0.009000
 41
0.009000
 66
     1
 10
0.0
 20
0.0
 30
0.0
  0
VERTEX
  8
7
 10
1.366800
 20
12.171200
 30
0.0
  0
VERTEX
  8
7
 10
1.366800
 20
22.089200
 30
0.0
  0
SEQEND
  0
POLYLINE
  8
7
  6
LINETYPE_11
 40
0.009000
 41
0.009000
 66
     1
 10
0.0
 20
0.0
 30
0.0
  0
VERTEX
  8
7
 10
1.391800
 20
21.964200
 30
0.0
  0
VERTEX
  8
7
 10
1.366800
 20
22.089200
 30
0.0
  0
SEQEND
  0
POLYLINE
  8
7
  6
LINETYPE_11
 40
0.009000
 41
0.009000
 66
     1
 10
0.0
 20
0.0
 30
0.0
  0
VERTEX
  8
7
 10
1.366800
 20
22.089200
 30
0.0
  0
VERTEX
  8
7
 10
1.341800
 20
21.964200
 30
0.0
  0
SEQEND
  0
TEXT
  8
7
 10
0.946600
 20
11.953000
 30
0.0
 40
0.156200
  1
19.072
 50
0.000000
  0
POLYLINE
  8
7
  6
LINETYPE_11
 40
0.009000
 41
0.009000
 66
     1
 10
0.0
 20
0.0
 30
0.0
  0
VERTEX
  8
7
 10
1.990700
 20
22.089200
 30
0.0
  0
VERTEX
  8
7
 10
1.259100
 20
22.089200
 30
0.0
  0
SEQEND
  0
POLYLINE
  8
7
  6
LINETYPE_11
 40
0.009000
 41
0.009000
 66
     1
 10
0.0
 20
0.0
 30
0.0
  0
VERTEX
  8
7
 10
16.782600
 20
33.925900
 30
0.0
  0
VERTEX
  8
7
 10
1.259100
 20
33.925900
 30
0.0
  0
SEQEND
  0
POLYLINE
  8
7
  6
LINETYPE_11
 40
0.009000
 41
0.009000
 66
     1
 10
0.0
 20
0.0
 30
0.0
  0
VERTEX
  8
7
 10
1.384100
 20
27.988200
 30
0.0
  0
VERTEX
  8
7
 10
1.384100
 20
22.089200
 30
0.0
  0
SEQEND
  0
POLYLINE
  8
7
  6
LINETYPE_11
 40
0.009000
 41
0.009000
 66
     1
 10
0.0
 20
0.0
 30
0.0
  0
VERTEX
  8
7
 10
1.359100
 20
22.214200
 30
0.0
  0
VERTEX
  8
7
 10
1.384100
 20
22.089200
 30
0.0
  0
SEQEND
  0
POLYLINE
  8
7
  6
LINETYPE_11
 40
0.009000
 41
0.009000
 66
     1
 10
0.0
 20
0.0
 30
0.0
  0
VERTEX
  8
7
 10
1.384100
 20
22.089200
 30
0.0
  0
VERTEX
  8
7
 10
1.409100
 20
22.214200
 30
0.0
  0
SEQEND
  0
POLYLINE
  8
7
  6
LINETYPE_11
 40
0.009000
 41
0.009000
 66
     1
 10
0.0
 20
0.0
 30
0.0
  0
VERTEX
  8
7
 10
1.384100
 20
28.268400
 30
0.0
  0
VERTEX
  8
7
 10
1.384100
 20
33.925900
 30
0.0
  0
SEQEND
  0
POLYLINE
  8
7
  6
LINETYPE_11
 40
0.009000
 41
0.009000
 66
     1
 10
0.0
 20
0.0
 30
0.0
  0
VERTEX
  8
7
 10
1.409100
 20
33.800900
 30
0.0
  0
VERTEX
  8
7
 10
1.384100
 20
33.925900
 30
0.0
  0
SEQEND
  0
POLYLINE
  8
7
  6
LINETYPE_11
 40
0.009000
 41
0.009000
 66
     1
 10
0.0
 20
0.0
 30
0.0
  0
VERTEX
  8
7
 10
1.384100
 20
33.925900
 30
0.0
  0
VERTEX
  8
7
 10
1.359100
 20
33.800900
 30
0.0
  0
SEQEND
  0
TEXT
  8
7
 10
0.968000
 20
28.050200
 30
0.0
 40
0.156200
  1
11.837
 50
0.000000
  0
POLYLINE
  8
7
  6
LINETYPE_11
 40
0.009000
 41
0.009000
 66
     1
 10
0.0
 20
0.0
 30
0.0
  0
VERTEX
  8
7
 10
13.107200
 20
2.955300
 30
0.0
  0
VERTEX
  8
7
 10
13.107200
 20
1.850100
 30
0.0
  0
SEQEND
  0
POLYLINE
  8
7
  6
LINETYPE_11
 40
0.009000
 41
0.009000
 66
     1
 10
0.0
 20
0.0
 30
0.0
  0
VERTEX
  8
7
 10
44.682000
 20
2.955300
 30
0.0
  0
VERTEX
  8
7
 10
44.682000
 20
1.850100
 30
0.0
  0
SEQEND
  0
POLYLINE
  8
7
  6
LINETYPE_11
 40
0.009000
 41
0.009000
 66
     1
 10
0.0
 20
0.0
 30
0.0
  0
VERTEX
  8
7
 10
27.775700
 20
1.975100
 30
0.0
  0
VERTEX
  8
7
 10
13.107200
 20
1.975100
 30
0.0
  0
SEQEND
  0
POLYLINE
  8
7
  6
LINETYPE_11
 40
0.009000
 41
0.009000
 66
     1
 10
0.0
 20
0.0
 30
0.0
  0
VERTEX
  8
7
 10
13.232200
 20
2.000100
 30
0.0
  0
VERTEX
  8
7
 10
13.107200
 20
1.975100
 30
0.0
  0
SEQEND
  0
POLYLINE
  8
7
  6
LINETYPE_11
 40
0.009000
 41
0.009000
 66
     1
 10
0.0
 20
0.0
 30
0.0
  0
VERTEX
  8
7
 10
13.107200
 20
1.975100
 30
0.0
  0
VERTEX
  8
7
 10
13.232200
 20
1.950100
 30
0.0
  0
SEQEND
  0
POLYLINE
  8
7
  6
LINETYPE_11
 40
0.009000
 41
0.009000
 66
     1
 10
0.0
 20
0.0
 30
0.0
  0
VERTEX
  8
7
 10
28.736700
 20
1.975100
 30
0.0
  0
VERTEX
  8
7
 10
44.682000
 20
1.975100
 30
0.0
  0
SEQEND
  0
POLYLINE
  8
7
  6
LINETYPE_11
 40
0.009000
 41
0.009000
 66
     1
 10
0.0
 20
0.0
 30
0.0
  0
VERTEX
  8
7
 10
44.557000
 20
1.950100
 30
0.0
  0
VERTEX
  8
7
 10
44.682000
 20
1.975100
 30
0.0
  0
SEQEND
  0
POLYLINE
  8
7
  6
LINETYPE_11
 40
0.009000
 41
0.009000
 66
     1
 10
0.0
 20
0.0
 30
0.0
  0
VERTEX
  8
7
 10
44.682000
 20
1.975100
 30
0.0
  0
VERTEX
  8
7
 10
44.557000
 20
2.000100
 30
0.0
  0
SEQEND
  0
TEXT
  8
7
 10
27.837700
 20
1.897000
 30
0.0
 40
0.156200
  1
31.575
 50
0.000000
  0
POLYLINE
  8
7
  6
LINETYPE_11
 40
0.009000
 41
0.009000
 66
     1
 10
0.0
 20
0.0
 30
0.0
  0
VERTEX
  8
7
 10
44.682000
 20
2.955300
 30
0.0
  0
VERTEX
  8
7
 10
44.682000
 20
1.850100
 30
0.0
  0
SEQEND
  0
POLYLINE
  8
7
  6
LINETYPE_11
 40
0.009000
 41
0.009000
 66
     1
 10
0.0
 20
0.0
 30
0.0
  0
VERTEX
  8
7
 10
45.696300
 20
18.640600
 30
0.0
  0
VERTEX
  8
7
 10
45.696300
 20
1.850100
 30
0.0
  0
SEQEND
  0
POLYLINE
  8
7
  6
LINETYPE_11
 40
0.009000
 41
0.009000
 66
     1
 10
0.0
 20
0.0
 30
0.0
  0
VERTEX
  8
7
 10
44.432000
 20
1.975100
 30
0.0
  0
VERTEX
  8
7
 10
44.682000
 20
1.975100
 30
0.0
  0
SEQEND
  0
POLYLINE
  8
7
  6
LINETYPE_11
 40
0.009000
 41
0.009000
 66
     1
 10
0.0
 20
0.0
 30
0.0
  0
VERTEX
  8
7
 10
44.557000
 20
1.950100
 30
0.0
  0
VERTEX
  8
7
 10
44.682000
 20
1.975100
 30
0.0
  0
SEQEND
  0
POLYLINE
  8
7
  6
LINETYPE_11
 40
0.009000
 41
0.009000
 66
     1
 10
0.0
 20
0.0
 30
0.0
  0
VERTEX
  8
7
 10
44.682000
 20
1.975100
 30
0.0
  0
VERTEX
  8
7
 10
44.557000
 20
2.000100
 30
0.0
  0
SEQEND
  0
POLYLINE
  8
7
  6
LINETYPE_11
 40
0.009000
 41
0.009000
 66
     1
 10
0.0
 20
0.0
 30
0.0
  0
VERTEX
  8
7
 10
45.946300
 20
1.975100
 30
0.0
  0
VERTEX
  8
7
 10
45.696300
 20
1.975100
 30
0.0
  0
SEQEND
  0
POLYLINE
  8
7
  6
LINETYPE_11
 40
0.009000
 41
0.009000
 66
     1
 10
0.0
 20
0.0
 30
0.0
  0
VERTEX
  8
7
 10
45.821300
 20
2.000100
 30
0.0
  0
VERTEX
  8
7
 10
45.696300
 20
1.975100
 30
0.0
  0
SEQEND
  0
POLYLINE
  8
7
  6
LINETYPE_11
 40
0.009000
 41
0.009000
 66
     1
 10
0.0
 20
0.0
 30
0.0
  0
VERTEX
  8
7
 10
45.696300
 20
1.975100
 30
0.0
  0
VERTEX
  8
7
 10
45.821300
 20
1.950100
 30
0.0
  0
SEQEND
  0
TEXT
  8
7
 10
44.809200
 20
1.897000
 30
0.0
 40
0.156200
  1
1.014
 50
0.000000
  0
POLYLINE
  8
7
  6
LINETYPE_11
 40
0.009000
 41
0.009000
 66
     1
 10
0.0
 20
0.0
 30
0.0
  0
VERTEX
  8
7
 10
23.727600
 20
16.337600
 30
0.0
  0
VERTEX
  8
7
 10
23.727600
 20
20.153400
 30
0.0
  0
SEQEND
  0
POLYLINE
  8
7
  6
LINETYPE_11
 40
0.009000
 41
0.009000
 66
     1
 10
0.0
 20
0.0
 30
0.0
  0
VERTEX
  8
7
 10
45.696300
 20
18.764600
 30
0.0
  0
VERTEX
  8
7
 10
45.696300
 20
20.153400
 30
0.0
  0
SEQEND
  0
POLYLINE
  8
7
  6
LINETYPE_11
 40
0.009000
 41
0.009000
 66
     1
 10
0.0
 20
0.0
 30
0.0
  0
VERTEX
  8
7
 10
34.003600
 20
20.028400
 30
0.0
  0
VERTEX
  8
7
 10
23.727600
 20
20.028400
 30
0.0
  0
SEQEND
  0
POLYLINE
  8
7
  6
LINETYPE_11
 40
0.009000
 41
0.009000
 66
     1
 10
0.0
 20
0.0
 30
0.0
  0
VERTEX
  8
7
 10
23.852600
 20
20.053400
 30
0.0
  0
VERTEX
  8
7
 10
23.727600
 20
20.028400
 30
0.0
  0
SEQEND
  0
POLYLINE
  8
7
  6
LINETYPE_11
 40
0.009000
 41
0.009000
 66
     1
 10
0.0
 20
0.0
 30
0.0
  0
VERTEX
  8
7
 10
23.727600
 20
20.028400
 30
0.0
  0
VERTEX
  8
7
 10
23.852600
 20
20.003400
 30
0.0
  0
SEQEND
  0
POLYLINE
  8
7
  6
LINETYPE_11
 40
0.009000
 41
0.009000
 66
     1
 10
0.0
 20
0.0
 30
0.0
  0
VERTEX
  8
7
 10
34.971200
 20
20.028400
 30
0.0
  0
VERTEX
  8
7
 10
45.696300
 20
20.028400
 30
0.0
  0
SEQEND
  0
POLYLINE
  8
7
  6
LINETYPE_11
 40
0.009000
 41
0.009000
 66
     1
 10
0.0
 20
0.0
 30
0.0
  0
VERTEX
  8
7
 10
45.571300
 20
20.003400
 30
0.0
  0
VERTEX
  8
7
 10
45.696300
 20
20.028400
 30
0.0
  0
SEQEND
  0
POLYLINE
  8
7
  6
LINETYPE_11
 40
0.009000
 41
0.009000
 66
     1
 10
0.0
 20
0.0
 30
0.0
  0
VERTEX
  8
7
 10
45.696300
 20
20.028400
 30
0.0
  0
VERTEX
  8
7
 10
45.571300
 20
20.053400
 30
0.0
  0
SEQEND
  0
TEXT
  8
7
 10
34.065600
 20
19.950300
 30
0.0
 40
0.156200
  1
21.969
 50
0.000000
  0
POLYLINE
  8
7
  6
LINETYPE_11
 40
0.009000
 41
0.009000
 66
     1
 10
0.0
 20
0.0
 30
0.0
  0
VERTEX
  8
7
 10
16.844600
 20
33.863900
 30
0.0
  0
VERTEX
  8
7
 10
16.844600
 20
33.767900
 30
0.0
  0
SEQEND
  0
POLYLINE
  8
7
  6
LINETYPE_11
 40
0.009000
 41
0.009000
 66
     1
 10
0.0
 20
0.0
 30
0.0
  0
VERTEX
  8
7
 10
23.727600
 20
16.337600
 30
0.0
  0
VERTEX
  8
7
 10
23.727600
 20
34.017900
 30
0.0
  0
SEQEND
  0
POLYLINE
  8
7
  6
LINETYPE_11
 40
0.009000
 41
0.009000
 66
     1
 10
0.0
 20
0.0
 30
0.0
  0
VERTEX
  8
7
 10
20.035000
 20
33.892900
 30
0.0
  0
VERTEX
  8
7
 10
16.844600
 20
33.892900
 30
0.0
  0
SEQEND
  0
POLYLINE
  8
7
  6
LINETYPE_11
 40
0.009000
 41
0.009000
 66
     1
 10
0.0
 20
0.0
 30
0.0
  0
VERTEX
  8
7
 10
16.969600
 20
33.917900
 30
0.0
  0
VERTEX
  8
7
 10
16.844600
 20
33.892900
 30
0.0
  0
SEQEND
  0
POLYLINE
  8
7
  6
LINETYPE_11
 40
0.009000
 41
0.009000
 66
     1
 10
0.0
 20
0.0
 30
0.0
  0
VERTEX
  8
7
 10
16.844600
 20
33.892900
 30
0.0
  0
VERTEX
  8
7
 10
16.969600
 20
33.867900
 30
0.0
  0
SEQEND
  0
POLYLINE
  8
7
  6
LINETYPE_11
 40
0.009000
 41
0.009000
 66
     1
 10
0.0
 20
0.0
 30
0.0
  0
VERTEX
  8
7
 10
20.830200
 20
33.892900
 30
0.0
  0
VERTEX
  8
7
 10
23.727600
 20
33.892900
 30
0.0
  0
SEQEND
  0
POLYLINE
  8
7
  6
LINETYPE_11
 40
0.009000
 41
0.009000
 66
     1
 10
0.0
 20
0.0
 30
0.0
  0
VERTEX
  8
7
 10
23.602600
 20
33.867900
 30
0.0
  0
VERTEX
  8
7
 10
23.727600
 20
33.892900
 30
0.0
  0
SEQEND
  0
POLYLINE
  8
7
  6
LINETYPE_11
 40
0.009000
 41
0.009000
 66
     1
 10
0.0
 20
0.0
 30
0.0
  0
VERTEX
  8
7
 10
23.727600
 20
33.892900
 30
0.0
  0
VERTEX
  8
7
 10
23.602600
 20
33.917900
 30
0.0
  0
SEQEND
  0
TEXT
  8
7
 10
20.097000
 20
33.814800
 30
0.0
 40
0.156200
  1
6.883
 50
0.000000
  0
POLYLINE
  8
7
  6
LINETYPE_11
 40
0.009000
 41
0.009000
 66
     1
 10
0.0
 20
0.0
 30
0.0
  0
VERTEX
  8
7
 10
2.052700
 20
22.027200
 30
0.0
  0
VERTEX
  8
7
 10
2.052700
 20
1.902100
 30
0.0
  0
SEQEND
  0
POLYLINE
  8
7
  6
LINETYPE_11
 40
0.009000
 41
0.009000
 66
     1
 10
0.0
 20
0.0
 30
0.0
  0
VERTEX
  8
7
 10
13.107200
 20
2.955300
 30
0.0
  0
VERTEX
  8
7
 10
13.107200
 20
1.902100
 30
0.0
  0
SEQEND
  0
POLYLINE
  8
7
  6
LINETYPE_11
 40
0.009000
 41
0.009000
 66
     1
 10
0.0
 20
0.0
 30
0.0
  0
VERTEX
  8
7
 10
7.005000
 20
2.027100
 30
0.0
  0
VERTEX
  8
7
 10
2.052700
 20
2.027100
 30
0.0
  0
SEQEND
  0
POLYLINE
  8
7
  6
LINETYPE_11
 40
0.009000
 41
0.009000
 66
     1
 10
0.0
 20
0.0
 30
0.0
  0
VERTEX
  8
7
 10
2.177700
 20
2.052100
 30
0.0
  0
VERTEX
  8
7
 10
2.052700
 20
2.027100
 30
0.0
  0
SEQEND
  0
POLYLINE
  8
7
  6
LINETYPE_11
 40
0.009000
 41
0.009000
 66
     1
 10
0.0
 20
0.0
 30
0.0
  0
VERTEX
  8
7
 10
2.052700
 20
2.027100
 30
0.0
  0
VERTEX
  8
7
 10
2.177700
 20
2.002100
 30
0.0
  0
SEQEND
  0
POLYLINE
  8
7
  6
LINETYPE_11
 40
0.009000
 41
0.009000
 66
     1
 10
0.0
 20
0.0
 30
0.0
  0
VERTEX
  8
7
 10
7.966000
 20
2.027100
 30
0.0
  0
VERTEX
  8
7
 10
13.107200
 20
2.027100
 30
0.0
  0
SEQEND
  0
POLYLINE
  8
7
  6
LINETYPE_11
 40
0.009000
 41
0.009000
 66
     1
 10
0.0
 20
0.0
 30
0.0
  0
VERTEX
  8
7
 10
12.982200
 20
2.002100
 30
0.0
  0
VERTEX
  8
7
 10
13.107200
 20
2.027100
 30
0.0
  0
SEQEND
  0
POLYLINE
  8
7
  6
LINETYPE_11
 40
0.009000
 41
0.009000
 66
     1
 10
0.0
 20
0.0
 30
0.0
  0
VERTEX
  8
7
 10
13.107200
 20
2.027100
 30
0.0
  0
VERTEX
  8
7
 10
12.982200
 20
2.052100
 30
0.0
  0
SEQEND
  0
TEXT
  8
7
 10
7.067000
 20
1.949000
 30
0.0
 40
0.156200
  1
11.055
 50
0.000000
  0
POLYLINE
  8
7
  6
LINETYPE_11
 40
0.009000
 41
0.009000
 66
     1
 10
0.0
 20
0.0
 30
0.0
  0
VERTEX
  8
7
 10
44.744000
 20
3.017300
 30
0.0
  0
VERTEX
  8
7
 10
47.125000
 20
3.017300
 30
0.0
  0
SEQEND
  0
POLYLINE
  8
7
  6
LINETYPE_11
 40
0.009000
 41
0.009000
 66
     1
 10
0.0
 20
0.0
 30
0.0
  0
VERTEX
  8
7
 10
45.758300
 20
18.702600
 30
0.0
  0
VERTEX
  8
7
 10
47.125000
 20
18.702600
 30
0.0
  0
SEQEND
  0
POLYLINE
  8
7
  6
LINETYPE_11
 40
0.009000
 41
0.009000
 66
     1
 10
0.0
 20
0.0
 30
0.0
  0
VERTEX
  8
7
 10
47.000000
 20
10.359900
 30
0.0
  0
VERTEX
  8
7
 10
47.000000
 20
3.017300
 30
0.0
  0
SEQEND
  0
POLYLINE
  8
7
  6
LINETYPE_11
 40
0.009000
 41
0.009000
 66
     1
 10
0.0
 20
0.0
 30
0.0
  0
VERTEX
  8
7
 10
46.975000
 20
3.142300
 30
0.0
  0
VERTEX
  8
7
 10
47.000000
 20
3.017300
 30
0.0
  0
SEQEND
  0
POLYLINE
  8
7
  6
LINETYPE_11
 40
0.009000
 41
0.009000
 66
     1
 10
0.0
 20
0.0
 30
0.0
  0
VERTEX
  8
7
 10
47.000000
 20
3.017300
 30
0.0
  0
VERTEX
  8
7
 10
47.025000
 20
3.142300
 30
0.0
  0
SEQEND
  0
POLYLINE
  8
7
  6
LINETYPE_11
 40
0.009000
 41
0.009000
 66
     1
 10
0.0
 20
0.0
 30
0.0
  0
VERTEX
  8
7
 10
47.000000
 20
10.640100
 30
0.0
  0
VERTEX
  8
7
 10
47.000000
 20
18.702600
 30
0.0
  0
SEQEND
  0
POLYLINE
  8
7
  6
LINETYPE_11
 40
0.009000
 41
0.009000
 66
     1
 10
0.0
 20
0.0
 30
0.0
  0
VERTEX
  8
7
 10
47.025000
 20
18.577600
 30
0.0
  0
VERTEX
  8
7
 10
47.000000
 20
18.702600
 30
0.0
  0
SEQEND
  0
POLYLINE
  8
7
  6
LINETYPE_11
 40
0.009000
 41
0.009000
 66
     1
 10
0.0
 20
0.0
 30
0.0
  0
VERTEX
  8
7
 10
47.000000
 20
18.702600
 30
0.0
  0
VERTEX
  8
7
 10
46.975000
 20
18.577600
 30
0.0
  0
SEQEND
  0
TEXT
  8
7
 10
46.583900
 20
10.421900
 30
0.0
 40
0.156200
  1
15.685
 50
0.000000
  0
POLYLINE
  8
7
  6
LINETYPE_11
 40
0.009000
 41
0.009000
 66
     1
 10
0.0
 20
0.0
 30
0.0
  0
VERTEX
  8
7
 10
16.264700
 20
2.955300
 30
0.0
  0
VERTEX
  8
7
 10
16.264700
 20
0.875000
 30
0.0
  0
SEQEND
  0
POLYLINE
  8
7
  6
LINETYPE_11
 40
0.009000
 41
0.009000
 66
     1
 10
0.0
 20
0.0
 30
0.0
  0
VERTEX
  8
7
 10
19.422200
 20
2.955300
 30
0.0
  0
VERTEX
  8
7
 10
19.422200
 20
0.875000
 30
0.0
  0
SEQEND
  0
POLYLINE
  8
7
  6
LINETYPE_11
 40
0.009000
 41
0.009000
 66
     1
 10
0.0
 20
0.0
 30
0.0
  0
VERTEX
  8
7
 10
17.442500
 20
1.000000
 30
0.0
  0
VERTEX
  8
7
 10
16.264700
 20
1.000000
 30
0.0
  0
SEQEND
  0
POLYLINE
  8
7
  6
LINETYPE_11
 40
0.009000
 41
0.009000
 66
     1
 10
0.0
 20
0.0
 30
0.0
  0
VERTEX
  8
7
 10
16.389700
 20
1.025000
 30
0.0
  0
VERTEX
  8
7
 10
16.264700
 20
1.000000
 30
0.0
  0
SEQEND
  0
POLYLINE
  8
7
  6
LINETYPE_11
 40
0.009000
 41
0.009000
 66
     1
 10
0.0
 20
0.0
 30
0.0
  0
VERTEX
  8
7
 10
16.264700
 20
1.000000
 30
0.0
  0
VERTEX
  8
7
 10
16.389700
 20
0.975000
 30
0.0
  0
SEQEND
  0
POLYLINE
  8
7
  6
LINETYPE_11
 40
0.009000
 41
0.009000
 66
     1
 10
0.0
 20
0.0
 30
0.0
  0
VERTEX
  8
7
 10
18.242500
 20
1.000000
 30
0.0
  0
VERTEX
  8
7
 10
19.422200
 20
1.000000
 30
0.0
  0
SEQEND
  0
POLYLINE
  8
7
  6
LINETYPE_11
 40
0.009000
 41
0.009000
 66
     1
 10
0.0
 20
0.0
 30
0.0
  0
VERTEX
  8
7
 10
19.297200
 20
0.975000
 30
0.0
  0
VERTEX
  8
7
 10
19.422200
 20
1.000000
 30
0.0
  0
SEQEND
  0
POLYLINE
  8
7
  6
LINETYPE_11
 40
0.009000
 41
0.009000
 66
     1
 10
0.0
 20
0.0
 30
0.0
  0
VERTEX
  8
7
 10
19.422200
 20
1.000000
 30
0.0
  0
VERTEX
  8
7
 10
19.297200
 20
1.025000
 30
0.0
  0
SEQEND
  0
TEXT
  8
7
 10
17.504500
 20
0.921900
 30
0.0
 40
0.156200
  1
3.158
 50
0.000000
  0
POLYLINE
  8
0
  6
LINETYPE_1
 66
     1
 10
0.0
 20
0.0
 30
0.0
  0
VERTEX
  8
0
 10
27.958100
 20
21.980800
 30
0.0
  0
VERTEX
  8
0
 10
45.958100
 20
21.980800
 30
0.0
  0
SEQEND
  0
POLYLINE
  8
0
  6
LINETYPE_1
 66
     1
 10
0.0
 20
0.0
 30
0.0
  0
VERTEX
  8
0
 10
45.958100
 20
21.980800
 30
0.0
  0
VERTEX
  8
0
 10
45.958100
 20
45.980800
 30
0.0
  0
SEQEND
  0
POLYLINE
  8
0
  6
LINETYPE_1
 66
     1
 10
0.0
 20
0.0
 30
0.0
  0
VERTEX
  8
0
 10
45.958100
 20
45.980800
 30
0.0
  0
VERTEX
  8
0
 10
27.958100
 20
45.980800
 30
0.0
  0
SEQEND
  0
POLYLINE
  8
0
  6
LINETYPE_1
 66
     1
 10
0.0
 20
0.0
 30
0.0
  0
VERTEX
  8
0
 10
27.958100
 20
45.980800
 30
0.0
  0
VERTEX
  8
0
 10
27.958100
 20
21.980800
 30
0.0
  0
SEQEND
  0
POLYLINE
  8
0
  6
LINETYPE_1
 66
     1
 10
0.0
 20
0.0
 30
0.0
  0
VERTEX
  8
0
 10
37.000000
 20
22.000000
 30
0.0
  0
VERTEX
  8
0
 10
37.000000
 20
22.000000
 30
0.0
  0
SEQEND
  0
POLYLINE
  8
0
  6
LINETYPE_1
 66
     1
 10
0.0
 20
0.0
 30
0.0
  0
VERTEX
  8
0
 10
37.000000
 20
45.980800
 30
0.0
  0
VERTEX
  8
0
 10
37.000000
 20
21.980800
 30
0.0
  0
SEQEND
  0
POLYLINE
  8
0
  6
LINETYPE_1
 66
     1
 10
0.0
 20
0.0
 30
0.0
  0
VERTEX
  8
0
 10
37.000000
 20
30.800000
 30
0.0
  0
VERTEX
  8
0
 10
35.500000
 20
30.800000
 30
0.0
  0
SEQEND
  0
POLYLINE
  8
0
  6
LINETYPE_1
 66
     1
 10
0.0
 20
0.0
 30
0.0
  0
VERTEX
  8
0
 10
35.500000
 20
30.800000
 30
0.0
  0
VERTEX
  8
0
 10
35.500000
 20
31.115000
 30
0.0
  0
SEQEND
  0
POLYLINE
  8
0
  6
LINETYPE_1
 66
     1
 10
0.0
 20
0.0
 30
0.0
  0
VERTEX
  8
0
 10
35.500000
 20
31.115000
 30
0.0
  0
VERTEX
  8
0
 10
38.500000
 20
31.115000
 30
0.0
  0
SEQEND
  0
POLYLINE
  8
0
  6
LINETYPE_1
 66
     1
 10
0.0
 20
0.0
 30
0.0
  0
VERTEX
  8
0
 10
38.500000
 20
31.115000
 30
0.0
  0
VERTEX
  8
0
 10
38.500000
 20
30.800000
 30
0.0
  0
SEQEND
  0
POLYLINE
  8
0
  6
LINETYPE_1
 66
     1
 10
0.0
 20
0.0
 30
0.0
  0
VERTEX
  8
0
 10
38.500000
 20
30.800000
 30
0.0
  0
VERTEX
  8
0
 10
37.000000
 20
30.800000
 30
0.0
  0
SEQEND
  0
POLYLINE
  8
0
  6
LINETYPE_1
 66
     1
 10
0.0
 20
0.0
 30
0.0
  0
VERTEX
  8
0
 10
29.500000
 20
30.842500
 30
0.0
  0
VERTEX
  8
0
 10
29.500000
 20
31.157500
 30
0.0
  0
SEQEND
  0
POLYLINE
  8
0
  6
LINETYPE_1
 66
     1
 10
0.0
 20
0.0
 30
0.0
  0
VERTEX
  8
0
 10
44.500000
 20
30.842500
 30
0.0
  0
VERTEX
  8
0
 10
44.500000
 20
31.157500
 30
0.0
  0
SEQEND
  0
POLYLINE
  8
0
  6
LINETYPE_1
 66
     1
 10
0.0
 20
0.0
 30
0.0
  0
VERTEX
  8
0
 10
44.500000
 20
30.842500
 30
0.0
  0
VERTEX
  8
0
 10
45.958100
 20
30.842500
 30
0.0
  0
SEQEND
  0
POLYLINE
  8
0
  6
LINETYPE_1
 66
     1
 10
0.0
 20
0.0
 30
0.0
  0
VERTEX
  8
0
 10
45.958100
 20
31.157500
 30
0.0
  0
VERTEX
  8
0
 10
44.500000
 20
31.157500
 30
0.0
  0
SEQEND
  0
POLYLINE
  8
0
  6
LINETYPE_1
 66
     1
 10
0.0
 20
0.0
 30
0.0
  0
VERTEX
  8
0
 10
29.500000
 20
30.842500
 30
0.0
  0
VERTEX
  8
0
 10
27.958100
 20
30.842500
 30
0.0
  0
SEQEND
  0
POLYLINE
  8
0
  6
LINETYPE_1
 66
     1
 10
0.0
 20
0.0
 30
0.0
  0
VERTEX
  8
0
 10
27.958100
 20
31.157500
 30
0.0
  0
VERTEX
  8
0
 10
29.500000
 20
31.157500
 30
0.0
  0
SEQEND
  0
POLYLINE
  8
0
  6
LINETYPE_1
 66
     1
 10
0.0
 20
0.0
 30
0.0
  0
VERTEX
  8
0
 10
37.000000
 20
24.800000
 30
0.0
  0
VERTEX
  8
0
 10
35.500000
 20
24.800000
 30
0.0
  0
SEQEND
  0
POLYLINE
  8
0
  6
LINETYPE_1
 66
     1
 10
0.0
 20
0.0
 30
0.0
  0
VERTEX
  8
0
 10
35.500000
 20
24.800000
 30
0.0
  0
VERTEX
  8
0
 10
35.500000
 20
25.115000
 30
0.0
  0
SEQEND
  0
POLYLINE
  8
0
  6
LINETYPE_1
 66
     1
 10
0.0
 20
0.0
 30
0.0
  0
VERTEX
  8
0
 10
35.500000
 20
25.115000
 30
0.0
  0
VERTEX
  8
0
 10
38.500000
 20
25.115000
 30
0.0
  0
SEQEND
  0
POLYLINE
  8
0
  6
LINETYPE_1
 66
     1
 10
0.0
 20
0.0
 30
0.0
  0
VERTEX
  8
0
 10
38.500000
 20
25.115000
 30
0.0
  0
VERTEX
  8
0
 10
38.500000
 20
24.800000
 30
0.0
  0
SEQEND
  0
POLYLINE
  8
0
  6
LINETYPE_1
 66
     1
 10
0.0
 20
0.0
 30
0.0
  0
VERTEX
  8
0
 10
38.500000
 20
24.800000
 30
0.0
  0
VERTEX
  8
0
 10
37.000000
 20
24.800000
 30
0.0
  0
SEQEND
  0
POLYLINE
  8
0
  6
LINETYPE_1
 66
     1
 10
0.0
 20
0.0
 30
0.0
  0
VERTEX
  8
0
 10
29.500000
 20
24.842500
 30
0.0
  0
VERTEX
  8
0
 10
29.500000
 20
25.157500
 30
0.0
  0
SEQEND
  0
POLYLINE
  8
0
  6
LINETYPE_1
 66
     1
 10
0.0
 20
0.0
 30
0.0
  0
VERTEX
  8
0
 10
44.500000
 20
24.842500
 30
0.0
  0
VERTEX
  8
0
 10
44.500000
 20
25.157500
 30
0.0
  0
SEQEND
  0
POLYLINE
  8
0
  6
LINETYPE_1
 66
     1
 10
0.0
 20
0.0
 30
0.0
  0
VERTEX
  8
0
 10
44.500000
 20
24.842500
 30
0.0
  0
VERTEX
  8
0
 10
45.958100
 20
24.842500
 30
0.0
  0
SEQEND
  0
POLYLINE
  8
0
  6
LINETYPE_1
 66
     1
 10
0.0
 20
0.0
 30
0.0
  0
VERTEX
  8
0
 10
45.958100
 20
25.157500
 30
0.0
  0
VERTEX
  8
0
 10
44.500000
 20
25.157500
 30
0.0
  0
SEQEND
  0
POLYLINE
  8
0
  6
LINETYPE_1
 66
     1
 10
0.0
 20
0.0
 30
0.0
  0
VERTEX
  8
0
 10
29.500000
 20
24.842500
 30
0.0
  0
VERTEX
  8
0
 10
27.958100
 20
24.842500
 30
0.0
  0
SEQEND
  0
POLYLINE
  8
0
  6
LINETYPE_1
 66
     1
 10
0.0
 20
0.0
 30
0.0
  0
VERTEX
  8
0
 10
27.958100
 20
25.157500
 30
0.0
  0
VERTEX
  8
0
 10
29.500000
 20
25.157500
 30
0.0
  0
SEQEND
  0
POLYLINE
  8
0
  6
LINETYPE_1
 66
     1
 10
0.0
 20
0.0
 30
0.0
  0
VERTEX
  8
0
 10
37.000000
 20
36.800000
 30
0.0
  0
VERTEX
  8
0
 10
35.500000
 20
36.800000
 30
0.0
  0
SEQEND
  0
POLYLINE
  8
0
  6
LINETYPE_1
 66
     1
 10
0.0
 20
0.0
 30
0.0
  0
VERTEX
  8
0
 10
35.500000
 20
36.800000
 30
0.0
  0
VERTEX
  8
0
 10
35.500000
 20
37.115000
 30
0.0
  0
SEQEND
  0
POLYLINE
  8
0
  6
LINETYPE_1
 66
     1
 10
0.0
 20
0.0
 30
0.0
  0
VERTEX
  8
0
 10
35.500000
 20
37.115000
 30
0.0
  0
VERTEX
  8
0
 10
38.500000
 20
37.115000
 30
0.0
  0
SEQEND
  0
POLYLINE
  8
0
  6
LINETYPE_1
 66
     1
 10
0.0
 20
0.0
 30
0.0
  0
VERTEX
  8
0
 10
38.500000
 20
37.115000
 30
0.0
  0
VERTEX
  8
0
 10
38.500000
 20
36.800000
 30
0.0
  0
SEQEND
  0
POLYLINE
  8
0
  6
LINETYPE_1
 66
     1
 10
0.0
 20
0.0
 30
0.0
  0
VERTEX
  8
0
 10
38.500000
 20
36.800000
 30
0.0
  0
VERTEX
  8
0
 10
37.000000
 20
36.800000
 30
0.0
  0
SEQEND
  0
POLYLINE
  8
0
  6
LINETYPE_1
 66
     1
 10
0.0
 20
0.0
 30
0.0
  0
VERTEX
  8
0
 10
29.500000
 20
36.842500
 30
0.0
  0
VERTEX
  8
0
 10
29.500000
 20
37.157500
 30
0.0
  0
SEQEND
  0
POLYLINE
  8
0
  6
LINETYPE_1
 66
     1
 10
0.0
 20
0.0
 30
0.0
  0
VERTEX
  8
0
 10
44.500000
 20
36.842500
 30
0.0
  0
VERTEX
  8
0
 10
44.500000
 20
37.157500
 30
0.0
  0
SEQEND
  0
POLYLINE
  8
0
  6
LINETYPE_1
 66
     1
 10
0.0
 20
0.0
 30
0.0
  0
VERTEX
  8
0
 10
44.500000
 20
36.842500
 30
0.0
  0
VERTEX
  8
0
 10
45.958100
 20
36.842500
 30
0.0
  0
SEQEND
  0
POLYLINE
  8
0
  6
LINETYPE_1
 66
     1
 10
0.0
 20
0.0
 30
0.0
  0
VERTEX
  8
0
 10
45.958100
 20
37.157500
 30
0.0
  0
VERTEX
  8
0
 10
44.500000
 20
37.157500
 30
0.0
  0
SEQEND
  0
POLYLINE
  8
0
  6
LINETYPE_1
 66
     1
 10
0.0
 20
0.0
 30
0.0
  0
VERTEX
  8
0
 10
29.500000
 20
36.842500
 30
0.0
  0
VERTEX
  8
0
 10
27.958100
 20
36.842500
 30
0.0
  0
SEQEND
  0
POLYLINE
  8
0
  6
LINETYPE_1
 66
     1
 10
0.0
 20
0.0
 30
0.0
  0
VERTEX
  8
0
 10
27.958100
 20
37.157500
 30
0.0
  0
VERTEX
  8
0
 10
29.500000
 20
37.157500
 30
0.0
  0
SEQEND
  0
POLYLINE
  8
0
  6
LINETYPE_1
 66
     1
 10
0.0
 20
0.0
 30
0.0
  0
VERTEX
  8
0
 10
37.000000
 20
42.800000
 30
0.0
  0
VERTEX
  8
0
 10
35.500000
 20
42.800000
 30
0.0
  0
SEQEND
  0
POLYLINE
  8
0
  6
LINETYPE_1
 66
     1
 10
0.0
 20
0.0
 30
0.0
  0
VERTEX
  8
0
 10
35.500000
 20
42.800000
 30
0.0
  0
VERTEX
  8
0
 10
35.500000
 20
43.115000
 30
0.0
  0
SEQEND
  0
POLYLINE
  8
0
  6
LINETYPE_1
 66
     1
 10
0.0
 20
0.0
 30
0.0
  0
VERTEX
  8
0
 10
35.500000
 20
43.115000
 30
0.0
  0
VERTEX
  8
0
 10
38.500000
 20
43.115000
 30
0.0
  0
SEQEND
  0
POLYLINE
  8
0
  6
LINETYPE_1
 66
     1
 10
0.0
 20
0.0
 30
0.0
  0
VERTEX
  8
0
 10
38.500000
 20
43.115000
 30
0.0
  0
VERTEX
  8
0
 10
38.500000
 20
42.800000
 30
0.0
  0
SEQEND
  0
POLYLINE
  8
0
  6
LINETYPE_1
 66
     1
 10
0.0
 20
0.0
 30
0.0
  0
VERTEX
  8
0
 10
38.500000
 20
42.800000
 30
0.0
  0
VERTEX
  8
0
 10
37.000000
 20
42.800000
 30
0.0
  0
SEQEND
  0
POLYLINE
  8
0
  6
LINETYPE_1
 66
     1
 10
0.0
 20
0.0
 30
0.0
  0
VERTEX
  8
0
 10
29.500000
 20
42.842500
 30
0.0
  0
VERTEX
  8
0
 10
29.500000
 20
43.157500
 30
0.0
  0
SEQEND
  0
POLYLINE
  8
0
  6
LINETYPE_1
 66
     1
 10
0.0
 20
0.0
 30
0.0
  0
VERTEX
  8
0
 10
44.500000
 20
42.842500
 30
0.0
  0
VERTEX
  8
0
 10
44.500000
 20
43.157500
 30
0.0
  0
SEQEND
  0
POLYLINE
  8
0
  6
LINETYPE_1
 66
     1
 10
0.0
 20
0.0
 30
0.0
  0
VERTEX
  8
0
 10
44.500000
 20
42.842500
 30
0.0
  0
VERTEX
  8
0
 10
45.958100
 20
42.842500
 30
0.0
  0
SEQEND
  0
POLYLINE
  8
0
  6
LINETYPE_1
 66
     1
 10
0.0
 20
0.0
 30
0.0
  0
VERTEX
  8
0
 10
45.958100
 20
43.157500
 30
0.0
  0
VERTEX
  8
0
 10
44.500000
 20
43.157500
 30
0.0
  0
SEQEND
  0
POLYLINE
  8
0
  6
LINETYPE_1
 66
     1
 10
0.0
 20
0.0
 30
0.0
  0
VERTEX
  8
0
 10
29.500000
 20
42.842500
 30
0.0
  0
VERTEX
  8
0
 10
27.958100
 20
42.842500
 30
0.0
  0
SEQEND
  0
POLYLINE
  8
0
  6
LINETYPE_1
 66
     1
 10
0.0
 20
0.0
 30
0.0
  0
VERTEX
  8
0
 10
27.958100
 20
43.157500
 30
0.0
  0
VERTEX
  8
0
 10
29.500000
 20
43.157500
 30
0.0
  0
SEQEND
  0
POLYLINE
  8
0
  6
LINETYPE_1
 66
     1
 10
0.0
 20
0.0
 30
0.0
  0
VERTEX
  8
0
 10
13.107200
 20
3.017300
 30
0.0
  0
VERTEX
  8
0
 10
44.682000
 20
3.017300
 30
0.0
  0
SEQEND
  0
POLYLINE
  8
0
  6
LINETYPE_1
 66
     1
 10
0.0
 20
0.0
 30
0.0
  0
VERTEX
  8
0
 10
44.678600
 20
2.948000
 30
0.0
  0
VERTEX
  8
0
 10
45.696300
 20
18.702600
 30
0.0
  0
SEQEND
  0
POLYLINE
  8
0
  6
LINETYPE_1
 66
     1
 10
0.0
 20
0.0
 30
0.0
  0
VERTEX
  8
0
 10
45.696300
 20
18.702600
 30
0.0
  0
VERTEX
  8
0
 10
23.727600
 20
16.275600
 30
0.0
  0
SEQEND
  0
POLYLINE
  8
0
  6
LINETYPE_1
 66
     1
 10
0.0
 20
0.0
 30
0.0
  0
VERTEX
  8
0
 10
16.107200
 20
3.017300
 30
0.0
  0
VERTEX
  8
0
 10
16.107200
 20
4.517300
 30
0.0
  0
SEQEND
  0
POLYLINE
  8
0
  6
LINETYPE_1
 66
     1
 10
0.0
 20
0.0
 30
0.0
  0
VERTEX
  8
0
 10
16.107200
 20
4.517300
 30
0.0
  0
VERTEX
  8
0
 10
16.422200
 20
4.517300
 30
0.0
  0
SEQEND
  0
POLYLINE
  8
0
  6
LINETYPE_1
 66
     1
 10
0.0
 20
0.0
 30
0.0
  0
VERTEX
  8
0
 10
16.422200
 20
4.517300
 30
0.0
  0
VERTEX
  8
0
 10
16.422200
 20
3.017300
 30
0.0
  0
SEQEND
  0
POLYLINE
  8
0
  6
LINETYPE_1
 66
     1
 10
0.0
 20
0.0
 30
0.0
  0
VERTEX
  8
0
 10
19.264700
 20
3.017300
 30
0.0
  0
VERTEX
  8
0
 10
19.264700
 20
4.517300
 30
0.0
  0
SEQEND
  0
POLYLINE
  8
0
  6
LINETYPE_1
 66
     1
 10
0.0
 20
0.0
 30
0.0
  0
VERTEX
  8
0
 10
19.264700
 20
4.517300
 30
0.0
  0
VERTEX
  8
0
 10
19.579700
 20
4.517300
 30
0.0
  0
SEQEND
  0
POLYLINE
  8
0
  6
LINETYPE_1
 66
     1
 10
0.0
 20
0.0
 30
0.0
  0
VERTEX
  8
0
 10
19.579700
 20
4.517300
 30
0.0
  0
VERTEX
  8
0
 10
19.579700
 20
3.017300
 30
0.0
  0
SEQEND
  0
POLYLINE
  8
0
  6
LINETYPE_1
 66
     1
 10
0.0
 20
0.0
 30
0.0
  0
VERTEX
  8
0
 10
22.422200
 20
3.017300
 30
0.0
  0
VERTEX
  8
0
 10
22.422200
 20
4.517300
 30
0.0
  0
SEQEND
  0
POLYLINE
  8
0
  6
LINETYPE_1
 66
     1
 10
0.0
 20
0.0
 30
0.0
  0
VERTEX
  8
0
 10
22.422200
 20
4.517300
 30
0.0
  0
VERTEX
  8
0
 10
22.737200
 20
4.517300
 30
0.0
  0
SEQEND
  0
POLYLINE
  8
0
  6
LINETYPE_1
 66
     1
 10
0.0
 20
0.0
 30
0.0
  0
VERTEX
  8
0
 10
22.737200
 20
4.517300
 30
0.0
  0
VERTEX
  8
0
 10
22.737200
 20
3.017300
 30
0.0
  0
SEQEND
  0
POLYLINE
  8
0
  6
LINETYPE_1
 66
     1
 10
0.0
 20
0.0
 30
0.0
  0
VERTEX
  8
0
 10
25.579700
 20
3.017300
 30
0.0
  0
VERTEX
  8
0
 10
25.579700
 20
4.517300
 30
0.0
  0
SEQEND
  0
POLYLINE
  8
0
  6
LINETYPE_1
 66
     1
 10
0.0
 20
0.0
 30
0.0
  0
VERTEX
  8
0
 10
25.579700
 20
4.517300
 30
0.0
  0
VERTEX
  8
0
 10
25.894700
 20
4.517300
 30
0.0
  0
SEQEND
  0
POLYLINE
  8
0
  6
LINETYPE_1
 66
     1
 10
0.0
 20
0.0
 30
0.0
  0
VERTEX
  8
0
 10
25.894700
 20
4.517300
 30
0.0
  0
VERTEX
  8
0
 10
25.894700
 20
3.017300
 30
0.0
  0
SEQEND
  0
POLYLINE
  8
0
  6
LINETYPE_1
 66
     1
 10
0.0
 20
0.0
 30
0.0
  0
VERTEX
  8
0
 10
28.737200
 20
3.017300
 30
0.0
  0
VERTEX
  8
0
 10
28.737200
 20
4.517300
 30
0.0
  0
SEQEND
  0
POLYLINE
  8
0
  6
LINETYPE_1
 66
     1
 10
0.0
 20
0.0
 30
0.0
  0
VERTEX
  8
0
 10
28.737200
 20
4.517300
 30
0.0
  0
VERTEX
  8
0
 10
29.052200
 20
4.517300
 30
0.0
  0
SEQEND
  0
POLYLINE
  8
0
  6
LINETYPE_1
 66
     1
 10
0.0
 20
0.0
 30
0.0
  0
VERTEX
  8
0
 10
29.052200
 20
4.517300
 30
0.0
  0
VERTEX
  8
0
 10
29.052200
 20
3.017300
 30
0.0
  0
SEQEND
  0
POLYLINE
  8
0
  6
LINETYPE_1
 66
     1
 10
0.0
 20
0.0
 30
0.0
  0
VERTEX
  8
0
 10
31.894700
 20
3.017300
 30
0.0
  0
VERTEX
  8
0
 10
31.894700
 20
4.517300
 30
0.0
  0
SEQEND
  0
POLYLINE
  8
0
  6
LINETYPE_1
 66
     1
 10
0.0
 20
0.0
 30
0.0
  0
VERTEX
  8
0
 10
31.894700
 20
4.517300
 30
0.0
  0
VERTEX
  8
0
 10
32.209700
 20
4.517300
 30
0.0
  0
SEQEND
  0
POLYLINE
  8
0
  6
LINETYPE_1
 66
     1
 10
0.0
 20
0.0
 30
0.0
  0
VERTEX
  8
0
 10
32.209700
 20
4.517300
 30
0.0
  0
VERTEX
  8
0
 10
32.209700
 20
3.017300
 30
0.0
  0
SEQEND
  0
POLYLINE
  8
0
  6
LINETYPE_1
 66
     1
 10
0.0
 20
0.0
 30
0.0
  0
VERTEX
  8
0
 10
35.052200
 20
3.017300
 30
0.0
  0
VERTEX
  8
0
 10
35.052200
 20
4.517300
 30
0.0
  0
SEQEND
  0
POLYLINE
  8
0
  6
LINETYPE_1
 66
     1
 10
0.0
 20
0.0
 30
0.0
  0
VERTEX
  8
0
 10
35.052200
 20
4.517300
 30
0.0
  0
VERTEX
  8
0
 10
35.367200
 20
4.517300
 30
0.0
  0
SEQEND
  0
POLYLINE
  8
0
  6
LINETYPE_1
 66
     1
 10
0.0
 20
0.0
 30
0.0
  0
VERTEX
  8
0
 10
35.367200
 20
4.517300
 30
0.0
  0
VERTEX
  8
0
 10
35.367200
 20
3.017300
 30
0.0
  0
SEQEND
  0
POLYLINE
  8
0
  6
LINETYPE_1
 66
     1
 10
0.0
 20
0.0
 30
0.0
  0
VERTEX
  8
0
 10
38.209700
 20
3.017300
 30
0.0
  0
VERTEX
  8
0
 10
38.209700
 20
4.517300
 30
0.0
  0
SEQEND
  0
POLYLINE
  8
0
  6
LINETYPE_1
 66
     1
 10
0.0
 20
0.0
 30
0.0
  0
VERTEX
  8
0
 10
38.209700
 20
4.517300
 30
0.0
  0
VERTEX
  8
0
 10
38.524700
 20
4.517300
 30
0.0
  0
SEQEND
  0
POLYLINE
  8
0
  6
LINETYPE_1
 66
     1
 10
0.0
 20
0.0
 30
0.0
  0
VERTEX
  8
0
 10
38.524700
 20
4.517300
 30
0.0
  0
VERTEX
  8
0
 10
38.524700
 20
3.017300
 30
0.0
  0
SEQEND
  0
POLYLINE
  8
0
  6
LINETYPE_1
 66
     1
 10
0.0
 20
0.0
 30
0.0
  0
VERTEX
  8
0
 10
41.367200
 20
3.017300
 30
0.0
  0
VERTEX
  8
0
 10
41.367200
 20
4.517300
 30
0.0
  0
SEQEND
  0
POLYLINE
  8
0
  6
LINETYPE_1
 66
     1
 10
0.0
 20
0.0
 30
0.0
  0
VERTEX
  8
0
 10
41.367200
 20
4.517300
 30
0.0
  0
VERTEX
  8
0
 10
41.682200
 20
4.517300
 30
0.0
  0
SEQEND
  0
POLYLINE
  8
0
  6
LINETYPE_1
 66
     1
 10
0.0
 20
0.0
 30
0.0
  0
VERTEX
  8
0
 10
41.682200
 20
4.517300
 30
0.0
  0
VERTEX
  8
0
 10
41.682200
 20
3.017300
 30
0.0
  0
SEQEND
  0
POLYLINE
  8
0
  6
LINETYPE_1
 66
     1
 10
0.0
 20
0.0
 30
0.0
  0
VERTEX
  8
0
 10
3.552800
 20
19.491100
 30
0.0
  0
VERTEX
  8
0
 10
4.851800
 20
20.241100
 30
0.0
  0
SEQEND
  0
POLYLINE
  8
0
  6
LINETYPE_1
 66
     1
 10
0.0
 20
0.0
 30
0.0
  0
VERTEX
  8
0
 10
4.851800
 20
20.241100
 30
0.0
  0
VERTEX
  8
0
 10
5.009300
 20
19.968300
 30
0.0
  0
SEQEND
  0
POLYLINE
  8
0
  6
LINETYPE_1
 66
     1
 10
0.0
 20
0.0
 30
0.0
  0
VERTEX
  8
0
 10
5.009300
 20
19.968300
 30
0.0
  0
VERTEX
  8
0
 10
3.710200
 20
19.218300
 30
0.0
  0
SEQEND
  0
POLYLINE
  8
0
  6
LINETYPE_1
 66
     1
 10
0.0
 20
0.0
 30
0.0
  0
VERTEX
  8
0
 10
5.131600
 20
16.756600
 30
0.0
  0
VERTEX
  8
0
 10
6.430600
 20
17.506600
 30
0.0
  0
SEQEND
  0
POLYLINE
  8
0
  6
LINETYPE_1
 66
     1
 10
0.0
 20
0.0
 30
0.0
  0
VERTEX
  8
0
 10
6.430600
 20
17.506600
 30
0.0
  0
VERTEX
  8
0
 10
6.588100
 20
17.233800
 30
0.0
  0
SEQEND
  0
POLYLINE
  8
0
  6
LINETYPE_1
 66
     1
 10
0.0
 20
0.0
 30
0.0
  0
VERTEX
  8
0
 10
6.588100
 20
17.233800
 30
0.0
  0
VERTEX
  8
0
 10
5.289000
 20
16.483800
 30
0.0
  0
SEQEND
  0
POLYLINE
  8
0
  6
LINETYPE_1
 66
     1
 10
0.0
 20
0.0
 30
0.0
  0
VERTEX
  8
0
 10
6.710400
 20
14.022100
 30
0.0
  0
VERTEX
  8
0
 10
8.009400
 20
14.772100
 30
0.0
  0
SEQEND
  0
POLYLINE
  8
0
  6
LINETYPE_1
 66
     1
 10
0.0
 20
0.0
 30
0.0
  0
VERTEX
  8
0
 10
8.009400
 20
14.772100
 30
0.0
  0
VERTEX
  8
0
 10
8.166900
 20
14.499300
 30
0.0
  0
SEQEND
  0
POLYLINE
  8
0
  6
LINETYPE_1
 66
     1
 10
0.0
 20
0.0
 30
0.0
  0
VERTEX
  8
0
 10
8.166900
 20
14.499300
 30
0.0
  0
VERTEX
  8
0
 10
6.867800
 20
13.749300
 30
0.0
  0
SEQEND
  0
POLYLINE
  8
0
  6
LINETYPE_1
 66
     1
 10
0.0
 20
0.0
 30
0.0
  0
VERTEX
  8
0
 10
8.289200
 20
11.287600
 30
0.0
  0
VERTEX
  8
0
 10
9.588200
 20
12.037600
 30
0.0
  0
SEQEND
  0
POLYLINE
  8
0
  6
LINETYPE_1
 66
     1
 10
0.0
 20
0.0
 30
0.0
  0
VERTEX
  8
0
 10
9.588200
 20
12.037600
 30
0.0
  0
VERTEX
  8
0
 10
9.745700
 20
11.764800
 30
0.0
  0
SEQEND
  0
POLYLINE
  8
0
  6
LINETYPE_1
 66
     1
 10
0.0
 20
0.0
 30
0.0
  0
VERTEX
  8
0
 10
9.745700
 20
11.764800
 30
0.0
  0
VERTEX
  8
0
 10
8.446600
 20
11.014800
 30
0.0
  0
SEQEND
  0
POLYLINE
  8
0
  6
LINETYPE_1
 66
     1
 10
0.0
 20
0.0
 30
0.0
  0
VERTEX
  8
0
 10
9.868000
 20
8.553100
 30
0.0
  0
VERTEX
  8
0
 10
11.167000
 20
9.303100
 30
0.0
  0
SEQEND
  0
POLYLINE
  8
0
  6
LINETYPE_1
 66
     1
 10
0.0
 20
0.0
 30
0.0
  0
VERTEX
  8
0
 10
11.167000
 20
9.303100
 30
0.0
  0
VERTEX
  8
0
 10
11.324500
 20
9.030300
 30
0.0
  0
SEQEND
  0
POLYLINE
  8
0
  6
LINETYPE_1
 66
     1
 10
0.0
 20
0.0
 30
0.0
  0
VERTEX
  8
0
 10
11.324500
 20
9.030300
 30
0.0
  0
VERTEX
  8
0
 10
10.025400
 20
8.280300
 30
0.0
  0
SEQEND
  0
POLYLINE
  8
0
  6
LINETYPE_1
 66
     1
 10
0.0
 20
0.0
 30
0.0
  0
VERTEX
  8
0
 10
11.446800
 20
5.818600
 30
0.0
  0
VERTEX
  8
0
 10
12.745800
 20
6.568600
 30
0.0
  0
SEQEND
  0
POLYLINE
  8
0
  6
LINETYPE_1
 66
     1
 10
0.0
 20
0.0
 30
0.0
  0
VERTEX
  8
0
 10
12.745800
 20
6.568600
 30
0.0
  0
VERTEX
  8
0
 10
12.903300
 20
6.295800
 30
0.0
  0
SEQEND
  0
POLYLINE
  8
0
  6
LINETYPE_1
 66
     1
 10
0.0
 20
0.0
 30
0.0
  0
VERTEX
  8
0
 10
12.903300
 20
6.295800
 30
0.0
  0
VERTEX
  8
0
 10
11.604200
 20
5.545800
 30
0.0
  0
SEQEND
  0
POLYLINE
  8
0
  6
LINETYPE_1
 66
     1
 10
0.0
 20
0.0
 30
0.0
  0
VERTEX
  8
0
 10
26.709500
 20
16.605000
 30
0.0
  0
VERTEX
  8
0
 10
26.874200
 20
15.114100
 30
0.0
  0
SEQEND
  0
POLYLINE
  8
0
  6
LINETYPE_1
 66
     1
 10
0.0
 20
0.0
 30
0.0
  0
VERTEX
  8
0
 10
26.874200
 20
15.114100
 30
0.0
  0
VERTEX
  8
0
 10
27.187300
 20
15.148700
 30
0.0
  0
SEQEND
  0
POLYLINE
  8
0
  6
LINETYPE_1
 66
     1
 10
0.0
 20
0.0
 30
0.0
  0
VERTEX
  8
0
 10
27.187300
 20
15.148700
 30
0.0
  0
VERTEX
  8
0
 10
27.022500
 20
16.639600
 30
0.0
  0
SEQEND
  0
POLYLINE
  8
0
  6
LINETYPE_1
 66
     1
 10
0.0
 20
0.0
 30
0.0
  0
VERTEX
  8
0
 10
29.847900
 20
16.951700
 30
0.0
  0
VERTEX
  8
0
 10
30.012600
 20
15.460800
 30
0.0
  0
SEQEND
  0
POLYLINE
  8
0
  6
LINETYPE_1
 66
     1
 10
0.0
 20
0.0
 30
0.0
  0
VERTEX
  8
0
 10
30.012600
 20
15.460800
 30
0.0
  0
VERTEX
  8
0
 10
30.325700
 20
15.495400
 30
0.0
  0
SEQEND
  0
POLYLINE
  8
0
  6
LINETYPE_1
 66
     1
 10
0.0
 20
0.0
 30
0.0
  0
VERTEX
  8
0
 10
30.325700
 20
15.495400
 30
0.0
  0
VERTEX
  8
0
 10
30.160900
 20
16.986300
 30
0.0
  0
SEQEND
  0
POLYLINE
  8
0
  6
LINETYPE_1
 66
     1
 10
0.0
 20
0.0
 30
0.0
  0
VERTEX
  8
0
 10
32.986300
 20
17.298400
 30
0.0
  0
VERTEX
  8
0
 10
33.151000
 20
15.807500
 30
0.0
  0
SEQEND
  0
POLYLINE
  8
0
  6
LINETYPE_1
 66
     1
 10
0.0
 20
0.0
 30
0.0
  0
VERTEX
  8
0
 10
33.151000
 20
15.807500
 30
0.0
  0
VERTEX
  8
0
 10
33.464100
 20
15.842100
 30
0.0
  0
SEQEND
  0
POLYLINE
  8
0
  6
LINETYPE_1
 66
     1
 10
0.0
 20
0.0
 30
0.0
  0
VERTEX
  8
0
 10
33.464100
 20
15.842100
 30
0.0
  0
VERTEX
  8
0
 10
33.299300
 20
17.333000
 30
0.0
  0
SEQEND
  0
POLYLINE
  8
0
  6
LINETYPE_1
 66
     1
 10
0.0
 20
0.0
 30
0.0
  0
VERTEX
  8
0
 10
36.124700
 20
17.645100
 30
0.0
  0
VERTEX
  8
0
 10
36.289400
 20
16.154200
 30
0.0
  0
SEQEND
  0
POLYLINE
  8
0
  6
LINETYPE_1
 66
     1
 10
0.0
 20
0.0
 30
0.0
  0
VERTEX
  8
0
 10
36.289400
 20
16.154200
 30
0.0
  0
VERTEX
  8
0
 10
36.602500
 20
16.188800
 30
0.0
  0
SEQEND
  0
POLYLINE
  8
0
  6
LINETYPE_1
 66
     1
 10
0.0
 20
0.0
 30
0.0
  0
VERTEX
  8
0
 10
36.602500
 20
16.188800
 30
0.0
  0
VERTEX
  8
0
 10
36.437700
 20
17.679700
 30
0.0
  0
SEQEND
  0
POLYLINE
  8
0
  6
LINETYPE_1
 66
     1
 10
0.0
 20
0.0
 30
0.0
  0
VERTEX
  8
0
 10
39.263100
 20
17.991800
 30
0.0
  0
VERTEX
  8
0
 10
39.427800
 20
16.500900
 30
0.0
  0
SEQEND
  0
POLYLINE
  8
0
  6
LINETYPE_1
 66
     1
 10
0.0
 20
0.0
 30
0.0
  0
VERTEX
  8
0
 10
39.427800
 20
16.500900
 30
0.0
  0
VERTEX
  8
0
 10
39.740900
 20
16.535500
 30
0.0
  0
SEQEND
  0
POLYLINE
  8
0
  6
LINETYPE_1
 66
     1
 10
0.0
 20
0.0
 30
0.0
  0
VERTEX
  8
0
 10
39.740900
 20
16.535500
 30
0.0
  0
VERTEX
  8
0
 10
39.576100
 20
18.026400
 30
0.0
  0
SEQEND
  0
POLYLINE
  8
0
  6
LINETYPE_1
 66
     1
 10
0.0
 20
0.0
 30
0.0
  0
VERTEX
  8
0
 10
22.637800
 20
19.070600
 30
0.0
  0
VERTEX
  8
0
 10
21.240300
 20
18.525700
 30
0.0
  0
SEQEND
  0
POLYLINE
  8
0
  6
LINETYPE_1
 66
     1
 10
0.0
 20
0.0
 30
0.0
  0
VERTEX
  8
0
 10
21.240300
 20
18.525700
 30
0.0
  0
VERTEX
  8
0
 10
21.125900
 20
18.819200
 30
0.0
  0
SEQEND
  0
POLYLINE
  8
0
  6
LINETYPE_1
 66
     1
 10
0.0
 20
0.0
 30
0.0
  0
VERTEX
  8
0
 10
21.125900
 20
18.819200
 30
0.0
  0
VERTEX
  8
0
 10
22.523400
 20
19.364200
 30
0.0
  0
SEQEND
  0
POLYLINE
  8
0
  6
LINETYPE_1
 66
     1
 10
0.0
 20
0.0
 30
0.0
  0
VERTEX
  8
0
 10
44.895700
 20
6.325400
 30
0.0
  0
VERTEX
  8
0
 10
43.398800
 20
6.422100
 30
0.0
  0
SEQEND
  0
POLYLINE
  8
0
  6
LINETYPE_1
 66
     1
 10
0.0
 20
0.0
 30
0.0
  0
VERTEX
  8
0
 10
43.398800
 20
6.422100
 30
0.0
  0
VERTEX
  8
0
 10
43.378500
 20
6.107700
 30
0.0
  0
SEQEND
  0
POLYLINE
  8
0
  6
LINETYPE_1
 66
     1
 10
0.0
 20
0.0
 30
0.0
  0
VERTEX
  8
0
 10
43.378500
 20
6.107700
 30
0.0
  0
VERTEX
  8
0
 10
44.875300
 20
6.011000
 30
0.0
  0
SEQEND
  0
POLYLINE
  8
0
  6
LINETYPE_1
 66
     1
 10
0.0
 20
0.0
 30
0.0
  0
VERTEX
  8
0
 10
45.099200
 20
9.476300
 30
0.0
  0
VERTEX
  8
0
 10
43.602300
 20
9.573000
 30
0.0
  0
SEQEND
  0
POLYLINE
  8
0
  6
LINETYPE_1
 66
     1
 10
0.0
 20
0.0
 30
0.0
  0
VERTEX
  8
0
 10
43.602300
 20
9.573000
 30
0.0
  0
VERTEX
  8
0
 10
43.582000
 20
9.258600
 30
0.0
  0
SEQEND
  0
POLYLINE
  8
0
  6
LINETYPE_1
 66
     1
 10
0.0
 20
0.0
 30
0.0
  0
VERTEX
  8
0
 10
43.582000
 20
9.258600
 30
0.0
  0
VERTEX
  8
0
 10
45.078800
 20
9.161900
 30
0.0
  0
SEQEND
  0
POLYLINE
  8
0
  6
LINETYPE_1
 66
     1
 10
0.0
 20
0.0
 30
0.0
  0
VERTEX
  8
0
 10
45.302700
 20
12.627200
 30
0.0
  0
VERTEX
  8
0
 10
43.805800
 20
12.723900
 30
0.0
  0
SEQEND
  0
POLYLINE
  8
0
  6
LINETYPE_1
 66
     1
 10
0.0
 20
0.0
 30
0.0
  0
VERTEX
  8
0
 10
43.805800
 20
12.723900
 30
0.0
  0
VERTEX
  8
0
 10
43.785500
 20
12.409500
 30
0.0
  0
SEQEND
  0
POLYLINE
  8
0
  6
LINETYPE_1
 66
     1
 10
0.0
 20
0.0
 30
0.0
  0
VERTEX
  8
0
 10
43.785500
 20
12.409500
 30
0.0
  0
VERTEX
  8
0
 10
45.282300
 20
12.312800
 30
0.0
  0
SEQEND
  0
POLYLINE
  8
0
  6
LINETYPE_1
 66
     1
 10
0.0
 20
0.0
 30
0.0
  0
VERTEX
  8
0
 10
23.085400
 20
14.911100
 30
0.0
  0
VERTEX
  8
0
 10
22.816000
 20
15.074300
 30
0.0
  0
SEQEND
  0
POLYLINE
  8
0
  6
LINETYPE_1
 66
     1
 10
0.0
 20
0.0
 30
0.0
  0
VERTEX
  8
0
 10
23.655500
 20
16.460600
 30
0.0
  0
VERTEX
  8
0
 10
22.816000
 20
15.074300
 30
0.0
  0
SEQEND
  0
POLYLINE
  8
0
  6
LINETYPE_1
 66
     1
 10
0.0
 20
0.0
 30
0.0
  0
VERTEX
  8
0
 10
23.085400
 20
14.911100
 30
0.0
  0
VERTEX
  8
0
 10
23.924900
 20
16.297400
 30
0.0
  0
SEQEND
  0
POLYLINE
  8
0
  6
LINETYPE_1
 66
     1
 10
0.0
 20
0.0
 30
0.0
  0
VERTEX
  8
0
 10
23.727600
 20
16.275600
 30
0.0
  0
VERTEX
  8
0
 10
16.844600
 20
33.925900
 30
0.0
  0
SEQEND
  0
POLYLINE
  8
0
  6
LINETYPE_1
 66
     1
 10
0.0
 20
0.0
 30
0.0
  0
VERTEX
  8
0
 10
16.844600
 20
33.925900
 30
0.0
  0
VERTEX
  8
0
 10
2.052700
 20
22.089200
 30
0.0
  0
SEQEND
  0
POLYLINE
  8
0
  6
LINETYPE_1
 66
     1
 10
0.0
 20
0.0
 30
0.0
  0
VERTEX
  8
0
 10
2.052700
 20
22.089200
 30
0.0
  0
VERTEX
  8
0
 10
13.107200
 20
3.017300
 30
0.0
  0
SEQEND
  0
POLYLINE
  8
0
  6
LINETYPE_1
 66
     1
 10
0.0
 20
0.0
 30
0.0
  0
VERTEX
  8
0
 10
12.037000
 20
30.078700
 30
0.0
  0
VERTEX
  8
0
 10
12.974200
 20
28.907500
 30
0.0
  0
SEQEND
  0
POLYLINE
  8
0
  6
LINETYPE_1
 66
     1
 10
0.0
 20
0.0
 30
0.0
  0
VERTEX
  8
0
 10
12.974200
 20
28.907500
 30
0.0
  0
VERTEX
  8
0
 10
12.728200
 20
28.710700
 30
0.0
  0
SEQEND
  0
POLYLINE
  8
0
  6
LINETYPE_1
 66
     1
 10
0.0
 20
0.0
 30
0.0
  0
VERTEX
  8
0
 10
12.728200
 20
28.710700
 30
0.0
  0
VERTEX
  8
0
 10
11.791000
 20
29.881900
 30
0.0
  0
SEQEND
  0
POLYLINE
  8
0
  6
LINETYPE_1
 66
     1
 10
0.0
 20
0.0
 30
0.0
  0
VERTEX
  8
0
 10
9.571700
 20
28.105900
 30
0.0
  0
VERTEX
  8
0
 10
10.508900
 20
26.934700
 30
0.0
  0
SEQEND
  0
POLYLINE
  8
0
  6
LINETYPE_1
 66
     1
 10
0.0
 20
0.0
 30
0.0
  0
VERTEX
  8
0
 10
10.508900
 20
26.934700
 30
0.0
  0
VERTEX
  8
0
 10
10.262900
 20
26.737900
 30
0.0
  0
SEQEND
  0
POLYLINE
  8
0
  6
LINETYPE_1
 66
     1
 10
0.0
 20
0.0
 30
0.0
  0
VERTEX
  8
0
 10
10.262900
 20
26.737900
 30
0.0
  0
VERTEX
  8
0
 10
9.325700
 20
27.909100
 30
0.0
  0
SEQEND
  0
POLYLINE
  8
0
  6
LINETYPE_1
 66
     1
 10
0.0
 20
0.0
 30
0.0
  0
VERTEX
  8
0
 10
7.106400
 20
26.133100
 30
0.0
  0
VERTEX
  8
0
 10
8.043600
 20
24.961900
 30
0.0
  0
SEQEND
  0
POLYLINE
  8
0
  6
LINETYPE_1
 66
     1
 10
0.0
 20
0.0
 30
0.0
  0
VERTEX
  8
0
 10
8.043600
 20
24.961900
 30
0.0
  0
VERTEX
  8
0
 10
7.797600
 20
24.765100
 30
0.0
  0
SEQEND
  0
POLYLINE
  8
0
  6
LINETYPE_1
 66
     1
 10
0.0
 20
0.0
 30
0.0
  0
VERTEX
  8
0
 10
7.797600
 20
24.765100
 30
0.0
  0
VERTEX
  8
0
 10
6.860400
 20
25.936300
 30
0.0
  0
SEQEND
  0
POLYLINE
  8
0
  6
LINETYPE_1
 66
     1
 10
0.0
 20
0.0
 30
0.0
  0
VERTEX
  8
0
 10
4.641100
 20
24.160300
 30
0.0
  0
VERTEX
  8
0
 10
5.578300
 20
22.989100
 30
0.0
  0
SEQEND
  0
POLYLINE
  8
0
  6
LINETYPE_1
 66
     1
 10
0.0
 20
0.0
 30
0.0
  0
VERTEX
  8
0
 10
5.578300
 20
22.989100
 30
0.0
  0
VERTEX
  8
0
 10
5.332300
 20
22.792300
 30
0.0
  0
SEQEND
  0
POLYLINE
  8
0
  6
LINETYPE_1
 66
     1
 10
0.0
 20
0.0
 30
0.0
  0
VERTEX
  8
0
 10
5.332300
 20
22.792300
 30
0.0
  0
VERTEX
  8
0
 10
4.395100
 20
23.963500
 30
0.0
  0
SEQEND
  0
POLYLINE
  8
0
  6
LINETYPE_1
 66
     1
 10
0.0
 20
0.0
 30
0.0
  0
VERTEX
  8
0
 10
19.196200
 20
27.895700
 30
0.0
  0
VERTEX
  8
0
 10
17.798700
 20
27.350800
 30
0.0
  0
SEQEND
  0
POLYLINE
  8
0
  6
LINETYPE_1
 66
     1
 10
0.0
 20
0.0
 30
0.0
  0
VERTEX
  8
0
 10
17.798700
 20
27.350800
 30
0.0
  0
VERTEX
  8
0
 10
17.684300
 20
27.644300
 30
0.0
  0
SEQEND
  0
POLYLINE
  8
0
  6
LINETYPE_1
 66
     1
 10
0.0
 20
0.0
 30
0.0
  0
VERTEX
  8
0
 10
17.684300
 20
27.644300
 30
0.0
  0
VERTEX
  8
0
 10
19.081800
 20
28.189300
 30
0.0
  0
SEQEND
  0
POLYLINE
  8
0
  6
LINETYPE_1
 66
     1
 10
0.0
 20
0.0
 30
0.0
  0
VERTEX
  8
0
 10
20.343400
 20
24.954000
 30
0.0
  0
VERTEX
  8
0
 10
18.945900
 20
24.409100
 30
0.0
  0
SEQEND
  0
POLYLINE
  8
0
  6
LINETYPE_1
 66
     1
 10
0.0
 20
0.0
 30
0.0
  0
VERTEX
  8
0
 10
18.945900
 20
24.409100
 30
0.0
  0
VERTEX
  8
0
 10
18.831500
 20
24.702600
 30
0.0
  0
SEQEND
  0
POLYLINE
  8
0
  6
LINETYPE_1
 66
     1
 10
0.0
 20
0.0
 30
0.0
  0
VERTEX
  8
0
 10
18.831500
 20
24.702600
 30
0.0
  0
VERTEX
  8
0
 10
20.229000
 20
25.247600
 30
0.0
  0
SEQEND
  0
POLYLINE
  8
0
  6
LINETYPE_1
 66
     1
 10
0.0
 20
0.0
 30
0.0
  0
VERTEX
  8
0
 10
21.490600
 20
22.012300
 30
0.0
  0
VERTEX
  8
0
 10
20.093100
 20
21.467400
 30
0.0
  0
SEQEND
  0
POLYLINE
  8
0
  6
LINETYPE_1
 66
     1
 10
0.0
 20
0.0
 30
0.0
  0
VERTEX
  8
0
 10
20.093100
 20
21.467400
 30
0.0
  0
VERTEX
  8
0
 10
19.978700
 20
21.760900
 30
0.0
  0
SEQEND
  0
POLYLINE
  8
0
  6
LINETYPE_1
 66
     1
 10
0.0
 20
0.0
 30
0.0
  0
VERTEX
  8
0
 10
19.978700
 20
21.760900
 30
0.0
  0
VERTEX
  8
0
 10
21.376200
 20
22.305900
 30
0.0
  0
SEQEND
  0
POLYLINE
  8
0
  6
LINETYPE_1
 66
     1
 10
0.0
 20
0.0
 30
0.0
  0
VERTEX
  8
0
 10
16.608100
 20
32.436200
 30
0.0
  0
VERTEX
  8
0
 10
16.303800
 20
32.518000
 30
0.0
  0
SEQEND
  0
POLYLINE
  8
0
  6
LINETYPE_1
 66
     1
 10
0.0
 20
0.0
 30
0.0
  0
VERTEX
  8
0
 10
16.608100
 20
32.436200
 30
0.0
  0
VERTEX
  8
0
 10
16.941200
 20
33.678100
 30
0.0
  0
SEQEND
  0
POLYLINE
  8
0
  6
LINETYPE_1
 66
     1
 10
0.0
 20
0.0
 30
0.0
  0
VERTEX
  8
0
 10
16.636900
 20
33.759700
 30
0.0
  0
VERTEX
  8
0
 10
16.303800
 20
32.518000
 30
0.0
  0
SEQEND
  0
POLYLINE
  8
0
  6
LINETYPE_1
 66
     1
 10
0.0
 20
0.0
 30
0.0
  0
VERTEX
  8
0
 10
0.000000
 20
48.000000
 30
0.0
  0
VERTEX
  8
0
 10
48.000000
 20
48.000000
 30
0.0
  0
VERTEX
  8
0
 10
48.000000
 20
0.000000
 30
0.0
  0
VERTEX
  8
0
 10
0.000000
 20
0.000000
 30
0.0
  0
VERTEX
  8
0
 10
0.000000
 20
48.000000
 30
0.0
  0
SEQEND
  0
POLYLINE
  8
0
  6
LINETYPE_1
 66
     1
 10
0.0
 20
0.0
 30
0.0
  0
VERTEX
  8
0
 10
16.935500
 20
29.907600
 30
0.0
  0
VERTEX
  8
0
 10
16.735000
 20
30.150500
 30
0.0
  0
SEQEND
  0
POLYLINE
  8
0
  6
LINETYPE_1
 66
     1
 10
0.0
 20
0.0
 30
0.0
  0
VERTEX
  8
0
 10
16.935500
 20
29.907600
 30
0.0
  0
VERTEX
  8
0
 10
18.052000
 20
30.829600
 30
0.0
  0
SEQEND
  0
POLYLINE
  8
0
  6
LINETYPE_1
 66
     1
 10
0.0
 20
0.0
 30
0.0
  0
VERTEX
  8
0
 10
17.931500
 20
31.138700
 30
0.0
  0
VERTEX
  8
0
 10
16.735000
 20
30.150500
 30
0.0
  0
SEQEND
  0
POLYLINE
  8
0
  6
LINETYPE_1
 66
     1
 10
0.0
 20
0.0
 30
0.0
  0
VERTEX
  8
0
 10
15.050200
 20
30.602200
 30
0.0
  0
VERTEX
  8
0
 10
14.755000
 20
30.492400
 30
0.0
  0
SEQEND
  0
POLYLINE
  8
0
  6
LINETYPE_1
 66
     1
 10
0.0
 20
0.0
 30
0.0
  0
VERTEX
  8
0
 10
14.249800
 20
31.849500
 30
0.0
  0
VERTEX
  8
0
 10
14.755000
 20
30.492400
 30
0.0
  0
SEQEND
  0
POLYLINE
  8
0
  6
LINETYPE_1
 66
     1
 10
0.0
 20
0.0
 30
0.0
  0
VERTEX
  8
0
 10
15.050200
 20
30.602200
 30
0.0
  0
VERTEX
  8
0
 10
14.508800
 20
32.056700
 30
0.0
  0
SEQEND
  0
POLYLINE
  8
7
  6
LINETYPE_11
 40
0.009000
 41
0.009000
 66
     1
 10
0.0
 20
0.0
 30
0.0
  0
VERTEX
  8
7
 10
16.787400
 20
29.989500
 30
0.0
  0
VERTEX
  8
7
 10
16.319200
 20
29.602900
 30
0.0
  0
SEQEND
  0
POLYLINE
  8
7
  6
LINETYPE_11
 40
0.009000
 41
0.009000
 66
     1
 10
0.0
 20
0.0
 30
0.0
  0
VERTEX
  8
7
 10
16.415600
 20
29.682500
 30
0.0
  0
VERTEX
  8
7
 10
16.542600
 20
29.542400
 30
0.0
  0
SEQEND
  0
POLYLINE
  8
7
  6
LINETYPE_11
 40
0.009000
 41
0.009000
 66
     1
 10
0.0
 20
0.0
 30
0.0
  0
VERTEX
  8
7
 10
16.542600
 20
29.542400
 30
0.0
  0
VERTEX
  8
7
 10
16.682100
 20
29.414600
 30
0.0
  0
SEQEND
  0
POLYLINE
  8
7
  6
LINETYPE_11
 40
0.009000
 41
0.009000
 66
     1
 10
0.0
 20
0.0
 30
0.0
  0
VERTEX
  8
7
 10
16.682100
 20
29.414600
 30
0.0
  0
VERTEX
  8
7
 10
16.832700
 20
29.300300
 30
0.0
  0
SEQEND
  0
POLYLINE
  8
7
  6
LINETYPE_11
 40
0.009000
 41
0.009000
 66
     1
 10
0.0
 20
0.0
 30
0.0
  0
VERTEX
  8
7
 10
16.832700
 20
29.300300
 30
0.0
  0
VERTEX
  8
7
 10
16.993300
 20
29.200400
 30
0.0
  0
SEQEND
  0
POLYLINE
  8
7
  6
LINETYPE_11
 40
0.009000
 41
0.009000
 66
     1
 10
0.0
 20
0.0
 30
0.0
  0
VERTEX
  8
7
 10
16.993300
 20
29.200400
 30
0.0
  0
VERTEX
  8
7
 10
17.162400
 20
29.115800
 30
0.0
  0
SEQEND
  0
POLYLINE
  8
7
  6
LINETYPE_11
 40
0.009000
 41
0.009000
 66
     1
 10
0.0
 20
0.0
 30
0.0
  0
VERTEX
  8
7
 10
17.852600
 20
28.944700
 30
0.0
  0
VERTEX
  8
7
 10
18.032300
 20
28.940400
 30
0.0
  0
SEQEND
  0
POLYLINE
  8
7
  6
LINETYPE_11
 40
0.009000
 41
0.009000
 66
     1
 10
0.0
 20
0.0
 30
0.0
  0
VERTEX
  8
7
 10
18.032300
 20
28.940400
 30
0.0
  0
VERTEX
  8
7
 10
18.211800
 20
28.951800
 30
0.0
  0
SEQEND
  0
POLYLINE
  8
7
  6
LINETYPE_11
 40
0.009000
 41
0.009000
 66
     1
 10
0.0
 20
0.0
 30
0.0
  0
VERTEX
  8
7
 10
18.211800
 20
28.951800
 30
0.0
  0
VERTEX
  8
7
 10
18.389600
 20
28.979000
 30
0.0
  0
SEQEND
  0
POLYLINE
  8
7
  6
LINETYPE_11
 40
0.009000
 41
0.009000
 66
     1
 10
0.0
 20
0.0
 30
0.0
  0
VERTEX
  8
7
 10
18.389600
 20
28.979000
 30
0.0
  0
VERTEX
  8
7
 10
18.564200
 20
29.021700
 30
0.0
  0
SEQEND
  0
POLYLINE
  8
7
  6
LINETYPE_11
 40
0.009000
 41
0.009000
 66
     1
 10
0.0
 20
0.0
 30
0.0
  0
VERTEX
  8
7
 10
18.564200
 20
29.021700
 30
0.0
  0
VERTEX
  8
7
 10
18.734500
 20
29.079600
 30
0.0
  0
SEQEND
  0
POLYLINE
  8
7
  6
LINETYPE_11
 40
0.009000
 41
0.009000
 66
     1
 10
0.0
 20
0.0
 30
0.0
  0
VERTEX
  8
7
 10
16.514500
 20
29.602000
 30
0.0
  0
VERTEX
  8
7
 10
16.415600
 20
29.682500
 30
0.0
  0
SEQEND
  0
POLYLINE
  8
7
  6
LINETYPE_11
 40
0.009000
 41
0.009000
 66
     1
 10
0.0
 20
0.0
 30
0.0
  0
VERTEX
  8
7
 10
16.415600
 20
29.682500
 30
0.0
  0
VERTEX
  8
7
 10
16.475900
 20
29.570200
 30
0.0
  0
SEQEND
  0
POLYLINE
  8
7
  6
LINETYPE_11
 40
0.009000
 41
0.009000
 66
     1
 10
0.0
 20
0.0
 30
0.0
  0
VERTEX
  8
7
 10
18.627100
 20
29.010900
 30
0.0
  0
VERTEX
  8
7
 10
18.734500
 20
29.079600
 30
0.0
  0
SEQEND
  0
POLYLINE
  8
7
  6
LINETYPE_11
 40
0.009000
 41
0.009000
 66
     1
 10
0.0
 20
0.0
 30
0.0
  0
VERTEX
  8
7
 10
18.734500
 20
29.079600
 30
0.0
  0
VERTEX
  8
7
 10
18.609000
 20
29.057500
 30
0.0
  0
SEQEND
  0
TEXT
  8
7
 10
17.211600
 20
28.921900
 30
0.0
 40
0.156200
  1
71.8°
 50
0.000000
  0
POLYLINE
  8
7
  6
LINETYPE_11
 40
0.009000
 41
0.009000
 66
     1
 10
0.0
 20
0.0
 30
0.0
  0
VERTEX
  8
7
 10
14.924200
 20
30.489200
 30
0.0
  0
VERTEX
  8
7
 10
15.117000
 20
29.971400
 30
0.0
  0
SEQEND
  0
POLYLINE
  8
7
  6
LINETYPE_11
 40
0.009000
 41
0.009000
 66
     1
 10
0.0
 20
0.0
 30
0.0
  0
VERTEX
  8
7
 10
12.825800
 20
30.710000
 30
0.0
  0
VERTEX
  8
7
 10
12.965100
 20
30.553600
 30
0.0
  0
SEQEND
  0
POLYLINE
  8
7
  6
LINETYPE_11
 40
0.009000
 41
0.009000
 66
     1
 10
0.0
 20
0.0
 30
0.0
  0
VERTEX
  8
7
 10
12.965100
 20
30.553600
 30
0.0
  0
VERTEX
  8
7
 10
13.120100
 20
30.412700
 30
0.0
  0
SEQEND
  0
POLYLINE
  8
7
  6
LINETYPE_11
 40
0.009000
 41
0.009000
 66
     1
 10
0.0
 20
0.0
 30
0.0
  0
VERTEX
  8
7
 10
13.120100
 20
30.412700
 30
0.0
  0
VERTEX
  8
7
 10
13.289000
 20
30.288800
 30
0.0
  0
SEQEND
  0
POLYLINE
  8
7
  6
LINETYPE_11
 40
0.009000
 41
0.009000
 66
     1
 10
0.0
 20
0.0
 30
0.0
  0
VERTEX
  8
7
 10
13.289000
 20
30.288800
 30
0.0
  0
VERTEX
  8
7
 10
13.470000
 20
30.183400
 30
0.0
  0
SEQEND
  0
POLYLINE
  8
7
  6
LINETYPE_11
 40
0.009000
 41
0.009000
 66
     1
 10
0.0
 20
0.0
 30
0.0
  0
VERTEX
  8
7
 10
13.470000
 20
30.183400
 30
0.0
  0
VERTEX
  8
7
 10
13.661100
 20
30.097700
 30
0.0
  0
SEQEND
  0
POLYLINE
  8
7
  6
LINETYPE_11
 40
0.009000
 41
0.009000
 66
     1
 10
0.0
 20
0.0
 30
0.0
  0
VERTEX
  8
7
 10
14.350800
 20
29.963700
 30
0.0
  0
VERTEX
  8
7
 10
14.498200
 20
29.967100
 30
0.0
  0
SEQEND
  0
POLYLINE
  8
7
  6
LINETYPE_11
 40
0.009000
 41
0.009000
 66
     1
 10
0.0
 20
0.0
 30
0.0
  0
VERTEX
  8
7
 10
14.498200
 20
29.967100
 30
0.0
  0
VERTEX
  8
7
 10
14.645000
 20
29.981300
 30
0.0
  0
SEQEND
  0
POLYLINE
  8
7
  6
LINETYPE_11
 40
0.009000
 41
0.009000
 66
     1
 10
0.0
 20
0.0
 30
0.0
  0
VERTEX
  8
7
 10
14.645000
 20
29.981300
 30
0.0
  0
VERTEX
  8
7
 10
14.790300
 20
30.006400
 30
0.0
  0
SEQEND
  0
POLYLINE
  8
7
  6
LINETYPE_11
 40
0.009000
 41
0.009000
 66
     1
 10
0.0
 20
0.0
 30
0.0
  0
VERTEX
  8
7
 10
14.790300
 20
30.006400
 30
0.0
  0
VERTEX
  8
7
 10
14.933400
 20
30.042200
 30
0.0
  0
SEQEND
  0
POLYLINE
  8
7
  6
LINETYPE_11
 40
0.009000
 41
0.009000
 66
     1
 10
0.0
 20
0.0
 30
0.0
  0
VERTEX
  8
7
 10
14.933400
 20
30.042200
 30
0.0
  0
VERTEX
  8
7
 10
15.073400
 20
30.088500
 30
0.0
  0
SEQEND
  0
POLYLINE
  8
7
  6
LINETYPE_11
 40
0.009000
 41
0.009000
 66
     1
 10
0.0
 20
0.0
 30
0.0
  0
VERTEX
  8
7
 10
12.923400
 20
30.628000
 30
0.0
  0
VERTEX
  8
7
 10
12.825800
 20
30.710000
 30
0.0
  0
SEQEND
  0
POLYLINE
  8
7
  6
LINETYPE_11
 40
0.009000
 41
0.009000
 66
     1
 10
0.0
 20
0.0
 30
0.0
  0
VERTEX
  8
7
 10
12.825800
 20
30.710000
 30
0.0
  0
VERTEX
  8
7
 10
12.884400
 20
30.596800
 30
0.0
  0
SEQEND
  0
POLYLINE
  8
7
  6
LINETYPE_11
 40
0.009000
 41
0.009000
 66
     1
 10
0.0
 20
0.0
 30
0.0
  0
VERTEX
  8
7
 10
14.965000
 20
30.021500
 30
0.0
  0
VERTEX
  8
7
 10
15.073400
 20
30.088500
 30
0.0
  0
SEQEND
  0
POLYLINE
  8
7
  6
LINETYPE_11
 40
0.009000
 41
0.009000
 66
     1
 10
0.0
 20
0.0
 30
0.0
  0
VERTEX
  8
7
 10
15.073400
 20
30.088500
 30
0.0
  0
VERTEX
  8
7
 10
14.947500
 20
30.068300
 30
0.0
  0
SEQEND
  0
TEXT
  8
7
 10
13.711600
 20
29.921900
 30
0.0
 40
0.156200
  1
71.8°
 50
0.000000
  0
POLYLINE
  8
7
  6
LINETYPE_11
 40
0.009000
 41
0.009000
 66
     1
 10
0.0
 20
0.0
 30
0.0
  0
VERTEX
  8
7
 10
16.439900
 20
32.417200
 30
0.0
  0
VERTEX
  8
7
 10
16.203700
 20
31.536500
 30
0.0
  0
SEQEND
  0
POLYLINE
  8
7
  6
LINETYPE_11
 40
0.009000
 41
0.009000
 66
     1
 10
0.0
 20
0.0
 30
0.0
  0
VERTEX
  8
7
 10
15.010600
 20
32.458400
 30
0.0
  0
VERTEX
  8
7
 10
15.065500
 20
32.392400
 30
0.0
  0
SEQEND
  0
POLYLINE
  8
7
  6
LINETYPE_11
 40
0.009000
 41
0.009000
 66
     1
 10
0.0
 20
0.0
 30
0.0
  0
VERTEX
  8
7
 10
15.065500
 20
32.392400
 30
0.0
  0
VERTEX
  8
7
 10
15.122700
 20
32.328400
 30
0.0
  0
SEQEND
  0
POLYLINE
  8
7
  6
LINETYPE_11
 40
0.009000
 41
0.009000
 66
     1
 10
0.0
 20
0.0
 30
0.0
  0
VERTEX
  8
7
 10
15.122700
 20
32.328400
 30
0.0
  0
VERTEX
  8
7
 10
15.182100
 20
32.266600
 30
0.0
  0
SEQEND
  0
POLYLINE
  8
7
  6
LINETYPE_11
 40
0.009000
 41
0.009000
 66
     1
 10
0.0
 20
0.0
 30
0.0
  0
VERTEX
  8
7
 10
15.182100
 20
32.266600
 30
0.0
  0
VERTEX
  8
7
 10
15.243800
 20
32.207000
 30
0.0
  0
SEQEND
  0
POLYLINE
  8
7
  6
LINETYPE_11
 40
0.009000
 41
0.009000
 66
     1
 10
0.0
 20
0.0
 30
0.0
  0
VERTEX
  8
7
 10
15.243800
 20
32.207000
 30
0.0
  0
VERTEX
  8
7
 10
15.307700
 20
32.149700
 30
0.0
  0
SEQEND
  0
POLYLINE
  8
7
  6
LINETYPE_11
 40
0.009000
 41
0.009000
 66
     1
 10
0.0
 20
0.0
 30
0.0
  0
VERTEX
  8
7
 10
15.706800
 20
31.871000
 30
0.0
  0
VERTEX
  8
7
 10
15.808200
 20
31.818100
 30
0.0
  0
SEQEND
  0
POLYLINE
  8
7
  6
LINETYPE_11
 40
0.009000
 41
0.009000
 66
     1
 10
0.0
 20
0.0
 30
0.0
  0
VERTEX
  8
7
 10
15.808200
 20
31.818100
 30
0.0
  0
VERTEX
  8
7
 10
15.912100
 20
31.770100
 30
0.0
  0
SEQEND
  0
POLYLINE
  8
7
  6
LINETYPE_11
 40
0.009000
 41
0.009000
 66
     1
 10
0.0
 20
0.0
 30
0.0
  0
VERTEX
  8
7
 10
15.912100
 20
31.770100
 30
0.0
  0
VERTEX
  8
7
 10
16.018200
 20
31.727200
 30
0.0
  0
SEQEND
  0
POLYLINE
  8
7
  6
LINETYPE_11
 40
0.009000
 41
0.009000
 66
     1
 10
0.0
 20
0.0
 30
0.0
  0
VERTEX
  8
7
 10
16.018200
 20
31.727200
 30
0.0
  0
VERTEX
  8
7
 10
16.126300
 20
31.689600
 30
0.0
  0
SEQEND
  0
POLYLINE
  8
7
  6
LINETYPE_11
 40
0.009000
 41
0.009000
 66
     1
 10
0.0
 20
0.0
 30
0.0
  0
VERTEX
  8
7
 10
16.126300
 20
31.689600
 30
0.0
  0
VERTEX
  8
7
 10
16.236100
 20
31.657300
 30
0.0
  0
SEQEND
  0
POLYLINE
  8
7
  6
LINETYPE_11
 40
0.009000
 41
0.009000
 66
     1
 10
0.0
 20
0.0
 30
0.0
  0
VERTEX
  8
7
 10
15.108200
 20
32.376400
 30
0.0
  0
VERTEX
  8
7
 10
15.010600
 20
32.458400
 30
0.0
  0
SEQEND
  0
POLYLINE
  8
7
  6
LINETYPE_11
 40
0.009000
 41
0.009000
 66
     1
 10
0.0
 20
0.0
 30
0.0
  0
VERTEX
  8
7
 10
15.010600
 20
32.458400
 30
0.0
  0
VERTEX
  8
7
 10
15.069200
 20
32.345200
 30
0.0
  0
SEQEND
  0
POLYLINE
  8
7
  6
LINETYPE_11
 40
0.009000
 41
0.009000
 66
     1
 10
0.0
 20
0.0
 30
0.0
  0
VERTEX
  8
7
 10
16.108900
 20
31.665500
 30
0.0
  0
VERTEX
  8
7
 10
16.236100
 20
31.657300
 30
0.0
  0
SEQEND
  0
POLYLINE
  8
7
  6
LINETYPE_11
 40
0.009000
 41
0.009000
 66
     1
 10
0.0
 20
0.0
 30
0.0
  0
VERTEX
  8
7
 10
16.236100
 20
31.657300
 30
0.0
  0
VERTEX
  8
7
 10
16.121800
 20
31.713800
 30
0.0
  0
SEQEND
  0
TEXT
  8
7
 10
15.209200
 20
31.921900
 30
0.0
 40
0.156200
  1
36.3°
 50
0.000000
  0
POLYLINE
  8
7
  6
LINETYPE_11
 40
0.009000
 41
0.009000
 66
     1
 10
0.0
 20
0.0
 30
0.0
  0
VERTEX
  8
7
 10
16.439900
 20
32.417200
 30
0.0
  0
VERTEX
  8
7
 10
16.204000
 20
31.537600
 30
0.0
  0
SEQEND
  0
POLYLINE
  8
7
  6
LINETYPE_11
 40
0.009000
 41
0.009000
 66
     1
 10
0.0
 20
0.0
 30
0.0
  0
VERTEX
  8
7
 10
16.236400
 20
31.658300
 30
0.0
  0
VERTEX
  8
7
 10
16.318100
 20
31.638000
 30
0.0
  0
SEQEND
  0
POLYLINE
  8
7
  6
LINETYPE_11
 40
0.009000
 41
0.009000
 66
     1
 10
0.0
 20
0.0
 30
0.0
  0
VERTEX
  8
7
 10
16.318100
 20
31.638000
 30
0.0
  0
VERTEX
  8
7
 10
16.400500
 20
31.620500
 30
0.0
  0
SEQEND
  0
POLYLINE
  8
7
  6
LINETYPE_11
 40
0.009000
 41
0.009000
 66
     1
 10
0.0
 20
0.0
 30
0.0
  0
VERTEX
  8
7
 10
16.400500
 20
31.620500
 30
0.0
  0
VERTEX
  8
7
 10
16.483500
 20
31.606100
 30
0.0
  0
SEQEND
  0
POLYLINE
  8
7
  6
LINETYPE_11
 40
0.009000
 41
0.009000
 66
     1
 10
0.0
 20
0.0
 30
0.0
  0
VERTEX
  8
7
 10
16.483500
 20
31.606100
 30
0.0
  0
VERTEX
  8
7
 10
16.567000
 20
31.594600
 30
0.0
  0
SEQEND
  0
POLYLINE
  8
7
  6
LINETYPE_11
 40
0.009000
 41
0.009000
 66
     1
 10
0.0
 20
0.0
 30
0.0
  0
VERTEX
  8
7
 10
16.567000
 20
31.594600
 30
0.0
  0
VERTEX
  8
7
 10
16.650800
 20
31.586200
 30
0.0
  0
SEQEND
  0
POLYLINE
  8
7
  6
LINETYPE_11
 40
0.009000
 41
0.009000
 66
     1
 10
0.0
 20
0.0
 30
0.0
  0
VERTEX
  8
7
 10
17.348500
 20
31.632900
 30
0.0
  0
VERTEX
  8
7
 10
17.419600
 20
31.649700
 30
0.0
  0
SEQEND
  0
POLYLINE
  8
7
  6
LINETYPE_11
 40
0.009000
 41
0.009000
 66
     1
 10
0.0
 20
0.0
 30
0.0
  0
VERTEX
  8
7
 10
17.419600
 20
31.649700
 30
0.0
  0
VERTEX
  8
7
 10
17.490100
 20
31.668600
 30
0.0
  0
SEQEND
  0
POLYLINE
  8
7
  6
LINETYPE_11
 40
0.009000
 41
0.009000
 66
     1
 10
0.0
 20
0.0
 30
0.0
  0
VERTEX
  8
7
 10
17.490100
 20
31.668600
 30
0.0
  0
VERTEX
  8
7
 10
17.560000
 20
31.689800
 30
0.0
  0
SEQEND
  0
POLYLINE
  8
7
  6
LINETYPE_11
 40
0.009000
 41
0.009000
 66
     1
 10
0.0
 20
0.0
 30
0.0
  0
VERTEX
  8
7
 10
17.560000
 20
31.689800
 30
0.0
  0
VERTEX
  8
7
 10
17.629200
 20
31.713100
 30
0.0
  0
SEQEND
  0
POLYLINE
  8
7
  6
LINETYPE_11
 40
0.009000
 41
0.009000
 66
     1
 10
0.0
 20
0.0
 30
0.0
  0
VERTEX
  8
7
 10
17.629200
 20
31.713100
 30
0.0
  0
VERTEX
  8
7
 10
17.697600
 20
31.738600
 30
0.0
  0
SEQEND
  0
POLYLINE
  8
7
  6
LINETYPE_11
 40
0.009000
 41
0.009000
 66
     1
 10
0.0
 20
0.0
 30
0.0
  0
VERTEX
  8
7
 10
16.363600
 20
31.650000
 30
0.0
  0
VERTEX
  8
7
 10
16.236400
 20
31.658300
 30
0.0
  0
SEQEND
  0
POLYLINE
  8
7
  6
LINETYPE_11
 40
0.009000
 41
0.009000
 66
     1
 10
0.0
 20
0.0
 30
0.0
  0
VERTEX
  8
7
 10
16.236400
 20
31.658300
 30
0.0
  0
VERTEX
  8
7
 10
16.350600
 20
31.601700
 30
0.0
  0
SEQEND
  0
POLYLINE
  8
7
  6
LINETYPE_11
 40
0.009000
 41
0.009000
 66
     1
 10
0.0
 20
0.0
 30
0.0
  0
VERTEX
  8
7
 10
17.590200
 20
31.669900
 30
0.0
  0
VERTEX
  8
7
 10
17.697600
 20
31.738600
 30
0.0
  0
SEQEND
  0
POLYLINE
  8
7
  6
LINETYPE_11
 40
0.009000
 41
0.009000
 66
     1
 10
0.0
 20
0.0
 30
0.0
  0
VERTEX
  8
7
 10
17.697600
 20
31.738600
 30
0.0
  0
VERTEX
  8
7
 10
17.572100
 20
31.716500
 30
0.0
  0
SEQEND
  0
TEXT
  8
7
 10
16.710600
 20
31.505300
 30
0.0
 40
0.156200
  1
36.3°
 50
0.000000
  0
POLYLINE
  8
0
  6
LINETYPE_1
 66
     1
 10
0.0
 20
0.0
 30
0.0
  0
VERTEX
  8
0
 10
44.012100
 20
15.351000
 30
0.0
  0
VERTEX
  8
0
 10
44.100600
 20
15.048600
 30
0.0
  0
SEQEND
  0
POLYLINE
  8
0
  6
LINETYPE_1
 66
     1
 10
0.0
 20
0.0
 30
0.0
  0
VERTEX
  8
0
 10
45.486400
 20
15.454000
 30
0.0
  0
VERTEX
  8
0
 10
44.100600
 20
15.048600
 30
0.0
  0
SEQEND
  0
POLYLINE
  8
0
  6
LINETYPE_1
 66
     1
 10
0.0
 20
0.0
 30
0.0
  0
VERTEX
  8
0
 10
44.012100
 20
15.351000
 30
0.0
  0
VERTEX
  8
0
 10
45.508100
 20
15.788600
 30
0.0
  0
SEQEND
  0
POLYLINE
  8
0
  6
LINETYPE_1
 66
     1
 10
0.0
 20
0.0
 30
0.0
  0
VERTEX
  8
0
 10
42.049900
 20
16.935800
 30
0.0
  0
VERTEX
  8
0
 10
42.355900
 20
16.861200
 30
0.0
  0
SEQEND
  0
POLYLINE
  8
0
  6
LINETYPE_1
 66
     1
 10
0.0
 20
0.0
 30
0.0
  0
VERTEX
  8
0
 10
42.724600
 20
18.374300
 30
0.0
  0
VERTEX
  8
0
 10
42.355900
 20
16.861200
 30
0.0
  0
SEQEND
  0
POLYLINE
  8
0
  6
LINETYPE_1
 66
     1
 10
0.0
 20
0.0
 30
0.0
  0
VERTEX
  8
0
 10
42.049900
 20
16.935800
 30
0.0
  0
VERTEX
  8
0
 10
42.391500
 20
18.337500
 30
0.0
  0
SEQEND
  0
POLYLINE
  8
0
  6
LINETYPE_1
 66
     1
 10
0.0
 20
0.0
 30
0.0
  0
VERTEX
  8
0
 10
44.546300
 20
17.726600
 30
0.0
  0
VERTEX
  8
0
 10
44.774100
 20
17.509100
 30
0.0
  0
SEQEND
  0
POLYLINE
  8
0
  6
LINETYPE_1
 66
     1
 10
0.0
 20
0.0
 30
0.0
  0
VERTEX
  8
0
 10
45.452900
 20
18.675700
 30
0.0
  0
VERTEX
  8
0
 10
44.546300
 20
17.726600
 30
0.0
  0
SEQEND
  0
POLYLINE
  8
0
  6
LINETYPE_1
 66
     1
 10
0.0
 20
0.0
 30
0.0
  0
VERTEX
  8
0
 10
44.774100
 20
17.509100
 30
0.0
  0
VERTEX
  8
0
 10
45.680500
 20
18.458100
 30
0.0
  0
SEQEND
  0
POLYLINE
  8
7
  6
LINETYPE_11
 40
0.009000
 41
0.009000
 66
     1
 10
0.0
 20
0.0
 30
0.0
  0
VERTEX
  8
7
 10
43.996900
 20
15.182400
 30
0.0
  0
VERTEX
  8
7
 10
43.354900
 20
14.994600
 30
0.0
  0
SEQEND
  0
POLYLINE
  8
7
  6
LINETYPE_11
 40
0.009000
 41
0.009000
 66
     1
 10
0.0
 20
0.0
 30
0.0
  0
VERTEX
  8
7
 10
43.534000
 20
14.916800
 30
0.0
  0
VERTEX
  8
7
 10
43.474900
 20
15.029700
 30
0.0
  0
SEQEND
  0
POLYLINE
  8
7
  6
LINETYPE_11
 40
0.009000
 41
0.009000
 66
     1
 10
0.0
 20
0.0
 30
0.0
  0
VERTEX
  8
7
 10
43.474900
 20
15.029700
 30
0.0
  0
VERTEX
  8
7
 10
43.486000
 20
14.902700
 30
0.0
  0
SEQEND
  0
POLYLINE
  8
7
  6
LINETYPE_11
 40
0.009000
 41
0.009000
 66
     1
 10
0.0
 20
0.0
 30
0.0
  0
VERTEX
  8
7
 10
45.234400
 20
13.502500
 30
0.0
  0
VERTEX
  8
7
 10
45.360800
 20
13.519400
 30
0.0
  0
SEQEND
  0
POLYLINE
  8
7
  6
LINETYPE_11
 40
0.009000
 41
0.009000
 66
     1
 10
0.0
 20
0.0
 30
0.0
  0
VERTEX
  8
7
 10
45.360800
 20
13.519400
 30
0.0
  0
VERTEX
  8
7
 10
45.237700
 20
13.552400
 30
0.0
  0
SEQEND
  0
TEXT
  8
7
 10
43.972100
 20
13.835800
 30
0.0
 40
0.156200
  1
70.0°
 50
0.000000
  0
POLYLINE
  8
7
  6
LINETYPE_11
 40
0.009000
 41
0.009000
 66
     1
 10
0.0
 20
0.0
 30
0.0
  0
VERTEX
  8
7
 10
42.188200
 20
16.838300
 30
0.0
  0
VERTEX
  8
7
 10
42.048200
 20
16.263700
 30
0.0
  0
SEQEND
  0
POLYLINE
  8
7
  6
LINETYPE_11
 40
0.009000
 41
0.009000
 66
     1
 10
0.0
 20
0.0
 30
0.0
  0
VERTEX
  8
7
 10
40.580500
 20
18.011600
 30
0.0
  0
VERTEX
  8
7
 10
40.542000
 20
18.133100
 30
0.0
  0
SEQEND
  0
POLYLINE
  8
7
  6
LINETYPE_11
 40
0.009000
 41
0.009000
 66
     1
 10
0.0
 20
0.0
 30
0.0
  0
VERTEX
  8
7
 10
40.542000
 20
18.133100
 30
0.0
  0
VERTEX
  8
7
 10
40.530900
 20
18.006100
 30
0.0
  0
SEQEND
  0
POLYLINE
  8
7
  6
LINETYPE_11
 40
0.009000
 41
0.009000
 66
     1
 10
0.0
 20
0.0
 30
0.0
  0
VERTEX
  8
7
 10
41.950400
 20
16.390500
 30
0.0
  0
VERTEX
  8
7
 10
42.077800
 20
16.385200
 30
0.0
  0
SEQEND
  0
POLYLINE
  8
7
  6
LINETYPE_11
 40
0.009000
 41
0.009000
 66
     1
 10
0.0
 20
0.0
 30
0.0
  0
VERTEX
  8
7
 10
42.077800
 20
16.385200
 30
0.0
  0
VERTEX
  8
7
 10
41.962300
 20
16.439100
 30
0.0
  0
SEQEND
  0
TEXT
  8
7
 10
40.745500
 20
16.936700
 30
0.0
 40
0.156200
  1
70.0°
 50
0.000000
  0
POLYLINE
  8
7
  6
LINETYPE_11
 40
0.009000
 41
0.009000
 66
     1
 10
0.0
 20
0.0
 30
0.0
  0
VERTEX
  8
7
 10
44.617400
 20
17.573000
 30
0.0
  0
VERTEX
  8
7
 10
44.155600
 20
17.089500
 30
0.0
  0
SEQEND
  0
POLYLINE
  8
7
  6
LINETYPE_11
 40
0.009000
 41
0.009000
 66
     1
 10
0.0
 20
0.0
 30
0.0
  0
VERTEX
  8
7
 10
43.641900
 20
18.349900
 30
0.0
  0
VERTEX
  8
7
 10
43.603400
 20
18.471400
 30
0.0
  0
SEQEND
  0
POLYLINE
  8
7
  6
LINETYPE_11
 40
0.009000
 41
0.009000
 66
     1
 10
0.0
 20
0.0
 30
0.0
  0
VERTEX
  8
7
 10
43.603400
 20
18.471400
 30
0.0
  0
VERTEX
  8
7
 10
43.592300
 20
18.344400
 30
0.0
  0
SEQEND
  0
POLYLINE
  8
7
  6
LINETYPE_11
 40
0.009000
 41
0.009000
 66
     1
 10
0.0
 20
0.0
 30
0.0
  0
VERTEX
  8
7
 10
44.134300
 20
17.248200
 30
0.0
  0
VERTEX
  8
7
 10
44.241900
 20
17.179900
 30
0.0
  0
SEQEND
  0
POLYLINE
  8
7
  6
LINETYPE_11
 40
0.009000
 41
0.009000
 66
     1
 10
0.0
 20
0.0
 30
0.0
  0
VERTEX
  8
7
 10
44.241900
 20
17.179900
 30
0.0
  0
VERTEX
  8
7
 10
44.168800
 20
17.284300
 30
0.0
  0
SEQEND
  0
TEXT
  8
7
 10
43.511300
 20
17.704800
 30
0.0
 40
0.156200
  1
40.0°
 50
0.000000
  0
POLYLINE
  8
7
  6
LINETYPE_11
 40
0.009000
 41
0.009000
 66
     1
 10
0.0
 20
0.0
 30
0.0
  0
VERTEX
  8
7
 10
44.617400
 20
17.573000
 30
0.0
  0
VERTEX
  8
7
 10
44.153500
 20
17.087200
 30
0.0
  0
SEQEND
  0
POLYLINE
  8
7
  6
LINETYPE_11
 40
0.009000
 41
0.009000
 66
     1
 10
0.0
 20
0.0
 30
0.0
  0
VERTEX
  8
7
 10
44.347500
 20
17.109400
 30
0.0
  0
VERTEX
  8
7
 10
44.239800
 20
17.177600
 30
0.0
  0
SEQEND
  0
POLYLINE
  8
7
  6
LINETYPE_11
 40
0.009000
 41
0.009000
 66
     1
 10
0.0
 20
0.0
 30
0.0
  0
VERTEX
  8
7
 10
44.239800
 20
17.177600
 30
0.0
  0
VERTEX
  8
7
 10
44.313000
 20
17.073200
 30
0.0
  0
SEQEND
  0
POLYLINE
  8
7
  6
LINETYPE_11
 40
0.009000
 41
0.009000
 66
     1
 10
0.0
 20
0.0
 30
0.0
  0
VERTEX
  8
7
 10
45.433900
 20
16.581300
 30
0.0
  0
VERTEX
  8
7
 10
45.560300
 20
16.598200
 30
0.0
  0
SEQEND
  0
POLYLINE
  8
7
  6
LINETYPE_11
 40
0.009000
 41
0.009000
 66
     1
 10
0.0
 20
0.0
 30
0.0
  0
VERTEX
  8
7
 10
45.560300
 20
16.598200
 30
0.0
  0
VERTEX
  8
7
 10
45.437200
 20
16.631200
 30
0.0
  0
SEQEND
  0
TEXT
  8
7
 10
44.645100
 20
16.657600
 30
0.0
 40
0.156200
  1
40.0°
 50
0.000000
  0
POLYLINE
  8
0
  6
LINETYPE_1
 66
     1
 10
0.0
 20
0.0
 30
0.0
  0
VERTEX
  8
0
 10
3.556200
 20
21.967500
 30
0.0
  0
VERTEX
  8
0
 10
3.498000
 20
21.658100
 30
0.0
  0
SEQEND
  0
POLYLINE
  8
0
  6
LINETYPE_1
 66
     1
 10
0.0
 20
0.0
 30
0.0
  0
VERTEX
  8
0
 10
3.556200
 20
21.967500
 30
0.0
  0
VERTEX
  8
0
 10
2.214700
 20
22.219100
 30
0.0
  0
SEQEND
  0
POLYLINE
  8
0
  6
LINETYPE_1
 66
     1
 10
0.0
 20
0.0
 30
0.0
  0
VERTEX
  8
0
 10
2.157200
 20
21.909400
 30
0.0
  0
VERTEX
  8
0
 10
3.498000
 20
21.658100
 30
0.0
  0
SEQEND
  0
POLYLINE
  8
7
  6
LINETYPE_11
 40
0.009000
 41
0.009000
 66
     1
 10
0.0
 20
0.0
 30
0.0
  0
VERTEX
  8
7
 10
3.588000
 20
21.801400
 30
0.0
  0
VERTEX
  8
7
 10
4.199200
 20
21.686800
 30
0.0
  0
SEQEND
  0
POLYLINE
  8
7
  6
LINETYPE_11
 40
0.009000
 41
0.009000
 66
     1
 10
0.0
 20
0.0
 30
0.0
  0
VERTEX
  8
7
 10
3.180800
 20
20.392200
 30
0.0
  0
VERTEX
  8
7
 10
3.085200
 20
20.307900
 30
0.0
  0
SEQEND
  0
POLYLINE
  8
7
  6
LINETYPE_11
 40
0.009000
 41
0.009000
 66
     1
 10
0.0
 20
0.0
 30
0.0
  0
VERTEX
  8
7
 10
3.085200
 20
20.307900
 30
0.0
  0
VERTEX
  8
7
 10
3.205900
 20
20.349000
 30
0.0
  0
SEQEND
  0
POLYLINE
  8
7
  6
LINETYPE_11
 40
0.009000
 41
0.009000
 66
     1
 10
0.0
 20
0.0
 30
0.0
  0
VERTEX
  8
7
 10
4.077900
 20
21.582300
 30
0.0
  0
VERTEX
  8
7
 10
4.076300
 20
21.709800
 30
0.0
  0
SEQEND
  0
POLYLINE
  8
7
  6
LINETYPE_11
 40
0.009000
 41
0.009000
 66
     1
 10
0.0
 20
0.0
 30
0.0
  0
VERTEX
  8
7
 10
4.076300
 20
21.709800
 30
0.0
  0
VERTEX
  8
7
 10
4.028700
 20
21.591500
 30
0.0
  0
SEQEND
  0
TEXT
  8
7
 10
3.441100
 20
20.822000
 30
0.0
 40
0.156200
  1
49.3°
 50
0.000000
  0
POLYLINE
  8
7
  6
LINETYPE_11
 40
0.009000
 41
0.009000
 66
     1
 10
0.0
 20
0.0
 30
0.0
  0
VERTEX
  8
7
 10
3.588000
 20
21.801400
 30
0.0
  0
VERTEX
  8
7
 10
4.198400
 20
21.687000
 30
0.0
  0
SEQEND
  0
POLYLINE
  8
7
  6
LINETYPE_11
 40
0.009000
 41
0.009000
 66
     1
 10
0.0
 20
0.0
 30
0.0
  0
VERTEX
  8
7
 10
4.074000
 20
21.837500
 30
0.0
  0
VERTEX
  8
7
 10
4.075500
 20
21.710000
 30
0.0
  0
SEQEND
  0
POLYLINE
  8
7
  6
LINETYPE_11
 40
0.009000
 41
0.009000
 66
     1
 10
0.0
 20
0.0
 30
0.0
  0
VERTEX
  8
7
 10
4.075500
 20
21.710000
 30
0.0
  0
VERTEX
  8
7
 10
4.123100
 20
21.828200
 30
0.0
  0
SEQEND
  0
POLYLINE
  8
7
  6
LINETYPE_11
 40
0.009000
 41
0.009000
 66
     1
 10
0.0
 20
0.0
 30
0.0
  0
VERTEX
  8
7
 10
3.757200
 20
23.293100
 30
0.0
  0
VERTEX
  8
7
 10
3.659600
 20
23.375100
 30
0.0
  0
SEQEND
  0
POLYLINE
  8
7
  6
LINETYPE_11
 40
0.009000
 41
0.009000
 66
     1
 10
0.0
 20
0.0
 30
0.0
  0
VERTEX
  8
7
 10
3.659600
 20
23.375100
 30
0.0
  0
VERTEX
  8
7
 10
3.718200
 20
23.261900
 30
0.0
  0
SEQEND
  0
TEXT
  8
7
 10
3.761300
 20
22.492300
 30
0.0
 40
0.156200
  1
49.3°
 50
0.000000
  0
POLYLINE
  8
7
  6
LINETYPE_11
 40
0.009000
 41
0.009000
 66
     1
 10
0.0
 20
0.0
 30
0.0
  0
VERTEX
  8
7
 10
22.918600
 20
14.939700
 30
0.0
  0
VERTEX
  8
7
 10
22.409200
 20
14.098500
 30
0.0
  0
SEQEND
  0
POLYLINE
  8
7
  6
LINETYPE_11
 40
0.009000
 41
0.009000
 66
     1
 10
0.0
 20
0.0
 30
0.0
  0
VERTEX
  8
7
 10
22.740900
 20
18.461700
 30
0.0
  0
VERTEX
  8
7
 10
22.848300
 20
18.530400
 30
0.0
  0
SEQEND
  0
POLYLINE
  8
7
  6
LINETYPE_11
 40
0.009000
 41
0.009000
 66
     1
 10
0.0
 20
0.0
 30
0.0
  0
VERTEX
  8
7
 10
22.848300
 20
18.530400
 30
0.0
  0
VERTEX
  8
7
 10
22.722800
 20
18.508300
 30
0.0
  0
SEQEND
  0
POLYLINE
  8
7
  6
LINETYPE_11
 40
0.009000
 41
0.009000
 66
     1
 10
0.0
 20
0.0
 30
0.0
  0
VERTEX
  8
7
 10
22.354000
 20
14.248800
 30
0.0
  0
VERTEX
  8
7
 10
22.473900
 20
14.205400
 30
0.0
  0
SEQEND
  0
POLYLINE
  8
7
  6
LINETYPE_11
 40
0.009000
 41
0.009000
 66
     1
 10
0.0
 20
0.0
 30
0.0
  0
VERTEX
  8
7
 10
22.473900
 20
14.205400
 30
0.0
  0
VERTEX
  8
7
 10
22.379900
 20
14.291500
 30
0.0
  0
SEQEND
  0
TEXT
  8
7
 10
20.944000
 20
16.360800
 30
0.0
 40
0.156200
  1
127.5°
 50
0.000000
  0
POLYLINE
  8
7
  6
LINETYPE_11
 40
0.009000
 41
0.009000
 66
     1
 10
0.0
 20
0.0
 30
0.0
  0
VERTEX
  8
7
 10
22.918600
 20
14.939700
 30
0.0
  0
VERTEX
  8
7
 10
22.419700
 20
14.115800
 30
0.0
  0
SEQEND
  0
POLYLINE
  8
7
  6
LINETYPE_11
 40
0.009000
 41
0.009000
 66
     1
 10
0.0
 20
0.0
 30
0.0
  0
VERTEX
  8
7
 10
22.604300
 20
14.179300
 30
0.0
  0
VERTEX
  8
7
 10
22.484400
 20
14.222700
 30
0.0
  0
SEQEND
  0
POLYLINE
  8
7
  6
LINETYPE_11
 40
0.009000
 41
0.009000
 66
     1
 10
0.0
 20
0.0
 30
0.0
  0
VERTEX
  8
7
 10
22.484400
 20
14.222700
 30
0.0
  0
VERTEX
  8
7
 10
22.578400
 20
14.136600
 30
0.0
  0
SEQEND
  0
POLYLINE
  8
7
  6
LINETYPE_11
 40
0.009000
 41
0.009000
 66
     1
 10
0.0
 20
0.0
 30
0.0
  0
VERTEX
  8
7
 10
26.151600
 20
16.417600
 30
0.0
  0
VERTEX
  8
7
 10
26.113100
 20
16.539100
 30
0.0
  0
SEQEND
  0
POLYLINE
  8
7
  6
LINETYPE_11
 40
0.009000
 41
0.009000
 66
     1
 10
0.0
 20
0.0
 30
0.0
  0
VERTEX
  8
7
 10
26.113100
 20
16.539100
 30
0.0
  0
VERTEX
  8
7
 10
26.102000
 20
16.412100
 30
0.0
  0
SEQEND
  0
TEXT
  8
7
 10
24.648100
 20
14.173300
 30
0.0
 40
0.156200
  1
127.5°
 50
0.000000
  0
POLYLINE
  8
0
  6
LINETYPE_1
 66
     1
 10
0.0
 20
0.0
 30
0.0
  0
VERTEX
  8
0
 10
43.541300
 20
4.003900
 30
0.0
  0
VERTEX
  8
0
 10
43.771000
 20
4.219500
 30
0.0
  0
SEQEND
  0
POLYLINE
  8
0
  6
LINETYPE_1
 66
     1
 10
0.0
 20
0.0
 30
0.0
  0
VERTEX
  8
0
 10
44.696900
 20
3.231900
 30
0.0
  0
VERTEX
  8
0
 10
43.771000
 20
4.219500
 30
0.0
  0
SEQEND
  0
POLYLINE
  8
0
  6
LINETYPE_1
 66
     1
 10
0.0
 20
0.0
 30
0.0
  0
VERTEX
  8
0
 10
43.541300
 20
4.003900
 30
0.0
  0
VERTEX
  8
0
 10
44.466300
 20
3.017300
 30
0.0
  0
SEQEND
  0
POLYLINE
  8
7
  6
LINETYPE_11
 40
0.009000
 41
0.009000
 66
     1
 10
0.0
 20
0.0
 30
0.0
  0
VERTEX
  8
7
 10
43.613800
 20
4.156900
 30
0.0
  0
VERTEX
  8
7
 10
42.902500
 20
4.915800
 30
0.0
  0
SEQEND
  0
POLYLINE
  8
7
  6
LINETYPE_11
 40
0.009000
 41
0.009000
 66
     1
 10
0.0
 20
0.0
 30
0.0
  0
VERTEX
  8
7
 10
42.913800
 20
4.720900
 30
0.0
  0
VERTEX
  8
7
 10
42.988000
 20
4.824600
 30
0.0
  0
SEQEND
  0
POLYLINE
  8
7
  6
LINETYPE_11
 40
0.009000
 41
0.009000
 66
     1
 10
0.0
 20
0.0
 30
0.0
  0
VERTEX
  8
7
 10
42.988000
 20
4.824600
 30
0.0
  0
VERTEX
  8
7
 10
42.879700
 20
4.757400
 30
0.0
  0
SEQEND
  0
POLYLINE
  8
7
  6
LINETYPE_11
 40
0.009000
 41
0.009000
 66
     1
 10
0.0
 20
0.0
 30
0.0
  0
VERTEX
  8
7
 10
42.179800
 20
3.142300
 30
0.0
  0
VERTEX
  8
7
 10
42.204800
 20
3.017300
 30
0.0
  0
SEQEND
  0
POLYLINE
  8
7
  6
LINETYPE_11
 40
0.009000
 41
0.009000
 66
     1
 10
0.0
 20
0.0
 30
0.0
  0
VERTEX
  8
7
 10
42.204800
 20
3.017300
 30
0.0
  0
VERTEX
  8
7
 10
42.229800
 20
3.142300
 30
0.0
  0
SEQEND
  0
TEXT
  8
7
 10
42.126900
 20
3.947400
 30
0.0
 40
0.156200
  1
46.9°
 50
0.000000
  0
POLYLINE
  8
7
  6
LINETYPE_11
 40
0.009000
 41
0.009000
 66
     1
 10
0.0
 20
0.0
 30
0.0
  0
VERTEX
  8
7
 10
43.613800
 20
4.156900
 30
0.0
  0
VERTEX
  8
7
 10
42.905400
 20
4.912700
 30
0.0
  0
SEQEND
  0
POLYLINE
  8
7
  6
LINETYPE_11
 40
0.009000
 41
0.009000
 66
     1
 10
0.0
 20
0.0
 30
0.0
  0
VERTEX
  8
7
 10
44.715300
 20
5.468100
 30
0.0
  0
VERTEX
  8
7
 10
44.841700
 20
5.485000
 30
0.0
  0
SEQEND
  0
POLYLINE
  8
7
  6
LINETYPE_11
 40
0.009000
 41
0.009000
 66
     1
 10
0.0
 20
0.0
 30
0.0
  0
VERTEX
  8
7
 10
44.841700
 20
5.485000
 30
0.0
  0
VERTEX
  8
7
 10
44.718600
 20
5.518000
 30
0.0
  0
SEQEND
  0
POLYLINE
  8
7
  6
LINETYPE_11
 40
0.009000
 41
0.009000
 66
     1
 10
0.0
 20
0.0
 30
0.0
  0
VERTEX
  8
7
 10
43.065000
 20
4.925200
 30
0.0
  0
VERTEX
  8
7
 10
42.990900
 20
4.821500
 30
0.0
  0
SEQEND
  0
POLYLINE
  8
7
  6
LINETYPE_11
 40
0.009000
 41
0.009000
 66
     1
 10
0.0
 20
0.0
 30
0.0
  0
VERTEX
  8
7
 10
42.990900
 20
4.821500
 30
0.0
  0
VERTEX
  8
7
 10
43.099200
 20
4.888800
 30
0.0
  0
SEQEND
  0
TEXT
  8
7
 10
43.520300
 20
5.254200
 30
0.0
 40
0.156200
  1
46.9°
 50
0.000000
  0
POLYLINE
  8
0
  6
LINETYPE_1
 66
     1
 10
0.0
 20
0.0
 30
0.0
  0
VERTEX
  8
0
 10
13.719600
 20
4.395700
 30
0.0
  0
VERTEX
  8
0
 10
13.992500
 20
4.238400
 30
0.0
  0
SEQEND
  0
POLYLINE
  8
0
  6
LINETYPE_1
 66
     1
 10
0.0
 20
0.0
 30
0.0
  0
VERTEX
  8
0
 10
13.289000
 20
3.017400
 30
0.0
  0
VERTEX
  8
0
 10
13.992500
 20
4.238400
 30
0.0
  0
SEQEND
  0
POLYLINE
  8
0
  6
LINETYPE_1
 66
     1
 10
0.0
 20
0.0
 30
0.0
  0
VERTEX
  8
0
 10
13.719600
 20
4.395700
 30
0.0
  0
VERTEX
  8
0
 10
13.016100
 20
3.174500
 30
0.0
  0
SEQEND
  0
POLYLINE
  8
7
  6
LINETYPE_11
 40
0.009000
 41
0.009000
 66
     1
 10
0.0
 20
0.0
 30
0.0
  0
VERTEX
  8
7
 10
13.887100
 20
4.370700
 30
0.0
  0
VERTEX
  8
7
 10
14.287000
 20
5.064800
 30
0.0
  0
SEQEND
  0
POLYLINE
  8
7
  6
LINETYPE_11
 40
0.009000
 41
0.009000
 66
     1
 10
0.0
 20
0.0
 30
0.0
  0
VERTEX
  8
7
 10
15.320200
 20
3.142300
 30
0.0
  0
VERTEX
  8
7
 10
15.345200
 20
3.017300
 30
0.0
  0
SEQEND
  0
POLYLINE
  8
7
  6
LINETYPE_11
 40
0.009000
 41
0.009000
 66
     1
 10
0.0
 20
0.0
 30
0.0
  0
VERTEX
  8
7
 10
15.345200
 20
3.017300
 30
0.0
  0
VERTEX
  8
7
 10
15.370200
 20
3.142300
 30
0.0
  0
SEQEND
  0
POLYLINE
  8
7
  6
LINETYPE_11
 40
0.009000
 41
0.009000
 66
     1
 10
0.0
 20
0.0
 30
0.0
  0
VERTEX
  8
7
 10
14.345400
 20
4.915700
 30
0.0
  0
VERTEX
  8
7
 10
14.224600
 20
4.956400
 30
0.0
  0
SEQEND
  0
POLYLINE
  8
7
  6
LINETYPE_11
 40
0.009000
 41
0.009000
 66
     1
 10
0.0
 20
0.0
 30
0.0
  0
VERTEX
  8
7
 10
14.224600
 20
4.956400
 30
0.0
  0
VERTEX
  8
7
 10
14.320400
 20
4.872300
 30
0.0
  0
SEQEND
  0
TEXT
  8
7
 10
14.749900
 20
4.066300
 30
0.0
 40
0.156200
  1
60.0°
 50
0.000000
  0
POLYLINE
  8
7
  6
LINETYPE_11
 40
0.009000
 41
0.009000
 66
     1
 10
0.0
 20
0.0
 30
0.0
  0
VERTEX
  8
7
 10
13.887100
 20
4.370700
 30
0.0
  0
VERTEX
  8
7
 10
14.285400
 20
5.062000
 30
0.0
  0
SEQEND
  0
POLYLINE
  8
7
  6
LINETYPE_11
 40
0.009000
 41
0.009000
 66
     1
 10
0.0
 20
0.0
 30
0.0
  0
VERTEX
  8
7
 10
14.102200
 20
4.994500
 30
0.0
  0
VERTEX
  8
7
 10
14.223000
 20
4.953700
 30
0.0
  0
SEQEND
  0
POLYLINE
  8
7
  6
LINETYPE_11
 40
0.009000
 41
0.009000
 66
     1
 10
0.0
 20
0.0
 30
0.0
  0
VERTEX
  8
7
 10
14.223000
 20
4.953700
 30
0.0
  0
VERTEX
  8
7
 10
14.127200
 20
5.037800
 30
0.0
  0
SEQEND
  0
POLYLINE
  8
7
  6
LINETYPE_11
 40
0.009000
 41
0.009000
 66
     1
 10
0.0
 20
0.0
 30
0.0
  0
VERTEX
  8
7
 10
12.082100
 20
5.035200
 30
0.0
  0
VERTEX
  8
7
 10
11.986500
 20
4.950900
 30
0.0
  0
SEQEND
  0
POLYLINE
  8
7
  6
LINETYPE_11
 40
0.009000
 41
0.009000
 66
     1
 10
0.0
 20
0.0
 30
0.0
  0
VERTEX
  8
7
 10
11.986500
 20
4.950900
 30
0.0
  0
VERTEX
  8
7
 10
12.107200
 20
4.991900
 30
0.0
  0
SEQEND
  0
TEXT
  8
7
 10
12.820000
 20
5.174100
 30
0.0
 40
0.156200
  1
60.0°
 50
0.000000
  0
TEXT
  8
0
 10
1.500000
 20
42.000000
 30
0.0
 40
0.312300
  1
All printed dimensions are in inches.  
 50
0.000000
  0
TEXT
  8
0
 10
1.500000
 20
41.000000
 30
0.0
 40
0.312300
  1
All slots are 1.5" long at their centers by 0.31496" (8mm) wide. 
 50
0.000000
  0
TEXT
  8
0
 10
1.490500
 20
39.033800
 30
0.0
 40
0.312300
  1
Solid black lines indicate "cut."
 50
0.000000
  0
TEXT
  8
0
 10
1.490500
 20
38.033800
 30
0.0
 40
0.312300
  1
Dotted black lines indicate "score and fold."
 50
0.000000
  0
TEXT
  8
7
 10
1.490500
 20
37.033800
 30
0.0
 40
0.312300
  1
Red lines indicate dimensions.  
 50
0.000000
  0
TEXT
  8
0
 10
1.500000
 20
40.000000
 30
0.0
 40
0.312300
  1
All unmarked angles are 90°.
 50
0.000000
  0
POLYLINE
  8
5
  6
LINETYPE_1
 66
     1
 10
0.0
 20
0.0
 30
0.0
  0
VERTEX
  8
5
 10
14.500000
 20
12.500000
 30
0.0
  0
VERTEX
  8
5
 10
19.500000
 20
7.500000
 30
0.0
  0
SEQEND
  0
POLYLINE
  8
5
  6
LINETYPE_1
 66
     1
 10
0.0
 20
0.0
 30
0.0
  0
VERTEX
  8
5
 10
19.500000
 20
12.500000
 30
0.0
  0
VERTEX
  8
5
 10
14.500000
 20
7.500000
 30
0.0
  0
SEQEND
  0
POLYLINE
  8
5
  6
LINETYPE_1
 66
     1
 10
0.0
 20
0.0
 30
0.0
  0
VERTEX
  8
5
 10
19.000000
 20
12.500000
 30
0.0
  0
VERTEX
  8
5
 10
20.000000
 20
12.500000
 30
0.0
  0
SEQEND
  0
POLYLINE
  8
5
  6
LINETYPE_1
 66
     1
 10
0.0
 20
0.0
 30
0.0
  0
VERTEX
  8
5
 10
19.000000
 20
7.500000
 30
0.0
  0
VERTEX
  8
5
 10
20.000000
 20
7.500000
 30
0.0
  0
SEQEND
  0
POLYLINE
  8
5
  6
LINETYPE_1
 66
     1
 10
0.0
 20
0.0
 30
0.0
  0
VERTEX
  8
5
 10
14.000000
 20
7.500000
 30
0.0
  0
VERTEX
  8
5
 10
15.000000
 20
7.500000
 30
0.0
  0
SEQEND
  0
POLYLINE
  8
5
  6
LINETYPE_1
 66
     1
 10
0.0
 20
0.0
 30
0.0
  0
VERTEX
  8
5
 10
14.000000
 20
12.500000
 30
0.0
  0
VERTEX
  8
5
 10
15.000000
 20
12.500000
 30
0.0
  0
SEQEND
  0
POLYLINE
  8
5
  6
LINETYPE_1
 66
     1
 10
0.0
 20
0.0
 30
0.0
  0
VERTEX
  8
5
 10
30.000000
 20
36.500000
 30
0.0
  0
VERTEX
  8
5
 10
35.000000
 20
31.500000
 30
0.0
  0
SEQEND
  0
POLYLINE
  8
5
  6
LINETYPE_1
 66
     1
 10
0.0
 20
0.0
 30
0.0
  0
VERTEX
  8
5
 10
35.000000
 20
36.500000
 30
0.0
  0
VERTEX
  8
5
 10
30.000000
 20
31.500000
 30
0.0
  0
SEQEND
  0
POLYLINE
  8
5
  6
LINETYPE_1
 66
     1
 10
0.0
 20
0.0
 30
0.0
  0
VERTEX
  8
5
 10
34.500000
 20
36.500000
 30
0.0
  0
VERTEX
  8
5
 10
35.500000
 20
36.500000
 30
0.0
  0
SEQEND
  0
POLYLINE
  8
5
  6
LINETYPE_1
 66
     1
 10
0.0
 20
0.0
 30
0.0
  0
VERTEX
  8
5
 10
34.500000
 20
31.500000
 30
0.0
  0
VERTEX
  8
5
 10
35.500000
 20
31.500000
 30
0.0
  0
SEQEND
  0
POLYLINE
  8
5
  6
LINETYPE_1
 66
     1
 10
0.0
 20
0.0
 30
0.0
  0
VERTEX
  8
5
 10
29.500000
 20
31.500000
 30
0.0
  0
VERTEX
  8
5
 10
30.500000
 20
31.500000
 30
0.0
  0
SEQEND
  0
POLYLINE
  8
5
  6
LINETYPE_1
 66
     1
 10
0.0
 20
0.0
 30
0.0
  0
VERTEX
  8
5
 10
29.500000
 20
36.500000
 30
0.0
  0
VERTEX
  8
5
 10
30.500000
 20
36.500000
 30
0.0
  0
SEQEND
  0
POLYLINE
  8
5
  6
LINETYPE_1
 66
     1
 10
0.0
 20
0.0
 30
0.0
  0
VERTEX
  8
5
 10
22.000000
 20
11.500000
 30
0.0
  0
VERTEX
  8
5
 10
22.004300
 20
11.434600
 30
0.0
  0
VERTEX
  8
5
 10
22.017100
 20
11.369500
 30
0.0
  0
VERTEX
  8
5
 10
22.038400
 20
11.304900
 30
0.0
  0
VERTEX
  8
5
 10
22.068100
 20
11.241200
 30
0.0
  0
VERTEX
  8
5
 10
22.106100
 20
11.178600
 30
0.0
  0
VERTEX
  8
5
 10
22.152200
 20
11.117300
 30
0.0
  0
VERTEX
  8
5
 10
22.206300
 20
11.057700
 30
0.0
  0
VERTEX
  8
5
 10
22.267900
 20
11.000000
 30
0.0
  0
VERTEX
  8
5
 10
22.337100
 20
10.944400
 30
0.0
  0
VERTEX
  8
5
 10
22.413300
 20
10.891200
 30
0.0
  0
VERTEX
  8
5
 10
22.496300
 20
10.840700
 30
0.0
  0
VERTEX
  8
5
 10
22.585800
 20
10.792900
 30
0.0
  0
VERTEX
  8
5
 10
22.681300
 20
10.748200
 30
0.0
  0
VERTEX
  8
5
 10
22.782500
 20
10.706600
 30
0.0
  0
VERTEX
  8
5
 10
22.888900
 20
10.668500
 30
0.0
  0
VERTEX
  8
5
 10
23.000000
 20
10.634000
 30
0.0
  0
VERTEX
  8
5
 10
23.115400
 20
10.603100
 30
0.0
  0
VERTEX
  8
5
 10
23.234600
 20
10.576100
 30
0.0
  0
VERTEX
  8
5
 10
23.357100
 20
10.553100
 30
0.0
  0
VERTEX
  8
5
 10
23.482400
 20
10.534100
 30
0.0
  0
VERTEX
  8
5
 10
23.609800
 20
10.519200
 30
0.0
  0
VERTEX
  8
5
 10
23.738900
 20
10.508600
 30
0.0
  0
VERTEX
  8
5
 10
23.869200
 20
10.502100
 30
0.0
  0
VERTEX
  8
5
 10
24.000000
 20
10.500000
 30
0.0
  0
VERTEX
  8
5
 10
24.130800
 20
10.502100
 30
0.0
  0
VERTEX
  8
5
 10
24.261100
 20
10.508600
 30
0.0
  0
VERTEX
  8
5
 10
24.390200
 20
10.519200
 30
0.0
  0
VERTEX
  8
5
 10
24.517600
 20
10.534100
 30
0.0
  0
VERTEX
  8
5
 10
24.642900
 20
10.553100
 30
0.0
  0
VERTEX
  8
5
 10
24.765400
 20
10.576100
 30
0.0
  0
VERTEX
  8
5
 10
24.884600
 20
10.603100
 30
0.0
  0
VERTEX
  8
5
 10
25.000000
 20
10.634000
 30
0.0
  0
VERTEX
  8
5
 10
25.111100
 20
10.668500
 30
0.0
  0
VERTEX
  8
5
 10
25.217500
 20
10.706600
 30
0.0
  0
VERTEX
  8
5
 10
25.318700
 20
10.748200
 30
0.0
  0
VERTEX
  8
5
 10
25.414200
 20
10.792900
 30
0.0
  0
VERTEX
  8
5
 10
25.503700
 20
10.840700
 30
0.0
  0
VERTEX
  8
5
 10
25.586700
 20
10.891200
 30
0.0
  0
VERTEX
  8
5
 10
25.662900
 20
10.944400
 30
0.0
  0
VERTEX
  8
5
 10
25.732100
 20
11.000000
 30
0.0
  0
VERTEX
  8
5
 10
25.793700
 20
11.057700
 30
0.0
  0
VERTEX
  8
5
 10
25.847800
 20
11.117300
 30
0.0
  0
VERTEX
  8
5
 10
25.893900
 20
11.178600
 30
0.0
  0
VERTEX
  8
5
 10
25.931900
 20
11.241200
 30
0.0
  0
VERTEX
  8
5
 10
25.961600
 20
11.304900
 30
0.0
  0
VERTEX
  8
5
 10
25.982900
 20
11.369500
 30
0.0
  0
VERTEX
  8
5
 10
25.995700
 20
11.434600
 30
0.0
  0
VERTEX
  8
5
 10
26.000000
 20
11.500000
 30
0.0
  0
VERTEX
  8
5
 10
25.995700
 20
11.565400
 30
0.0
  0
VERTEX
  8
5
 10
25.982900
 20
11.630500
 30
0.0
  0
VERTEX
  8
5
 10
25.961600
 20
11.695100
 30
0.0
  0
VERTEX
  8
5
 10
25.931900
 20
11.758800
 30
0.0
  0
VERTEX
  8
5
 10
25.893900
 20
11.821400
 30
0.0
  0
VERTEX
  8
5
 10
25.847800
 20
11.882700
 30
0.0
  0
VERTEX
  8
5
 10
25.793700
 20
11.942300
 30
0.0
  0
VERTEX
  8
5
 10
25.732100
 20
12.000000
 30
0.0
  0
VERTEX
  8
5
 10
25.662900
 20
12.055600
 30
0.0
  0
VERTEX
  8
5
 10
25.586700
 20
12.108800
 30
0.0
  0
VERTEX
  8
5
 10
25.503700
 20
12.159300
 30
0.0
  0
VERTEX
  8
5
 10
25.414200
 20
12.207100
 30
0.0
  0
VERTEX
  8
5
 10
25.318700
 20
12.251800
 30
0.0
  0
VERTEX
  8
5
 10
25.217500
 20
12.293400
 30
0.0
  0
VERTEX
  8
5
 10
25.111100
 20
12.331500
 30
0.0
  0
VERTEX
  8
5
 10
25.000000
 20
12.366000
 30
0.0
  0
VERTEX
  8
5
 10
24.884600
 20
12.396900
 30
0.0
  0
VERTEX
  8
5
 10
24.765400
 20
12.423900
 30
0.0
  0
VERTEX
  8
5
 10
24.642900
 20
12.446900
 30
0.0
  0
VERTEX
  8
5
 10
24.517600
 20
12.465900
 30
0.0
  0
VERTEX
  8
5
 10
24.390200
 20
12.480800
 30
0.0
  0
VERTEX
  8
5
 10
24.261100
 20
12.491400
 30
0.0
  0
VERTEX
  8
5
 10
24.130800
 20
12.497900
 30
0.0
  0
VERTEX
  8
5
 10
24.000000
 20
12.500000
 30
0.0
  0
VERTEX
  8
5
 10
23.869200
 20
12.497900
 30
0.0
  0
VERTEX
  8
5
 10
23.738900
 20
12.491400
 30
0.0
  0
VERTEX
  8
5
 10
23.609800
 20
12.480800
 30
0.0
  0
VERTEX
  8
5
 10
23.482400
 20
12.465900
 30
0.0
  0
VERTEX
  8
5
 10
23.357100
 20
12.446900
 30
0.0
  0
VERTEX
  8
5
 10
23.234600
 20
12.423900
 30
0.0
  0
VERTEX
  8
5
 10
23.115400
 20
12.396900
 30
0.0
  0
VERTEX
  8
5
 10
23.000000
 20
12.366000
 30
0.0
  0
VERTEX
  8
5
 10
22.888900
 20
12.331500
 30
0.0
  0
VERTEX
  8
5
 10
22.782500
 20
12.293400
 30
0.0
  0
VERTEX
  8
5
 10
22.681300
 20
12.251800
 30
0.0
  0
VERTEX
  8
5
 10
22.585800
 20
12.207100
 30
0.0
  0
VERTEX
  8
5
 10
22.496300
 20
12.159300
 30
0.0
  0
VERTEX
  8
5
 10
22.413300
 20
12.108800
 30
0.0
  0
VERTEX
  8
5
 10
22.337100
 20
12.055600
 30
0.0
  0
VERTEX
  8
5
 10
22.267900
 20
12.000000
 30
0.0
  0
VERTEX
  8
5
 10
22.206300
 20
11.942300
 30
0.0
  0
VERTEX
  8
5
 10
22.152200
 20
11.882700
 30
0.0
  0
VERTEX
  8
5
 10
22.106100
 20
11.821400
 30
0.0
  0
VERTEX
  8
5
 10
22.068100
 20
11.758800
 30
0.0
  0
VERTEX
  8
5
 10
22.038400
 20
11.695100
 30
0.0
  0
VERTEX
  8
5
 10
22.017100
 20
11.630500
 30
0.0
  0
VERTEX
  8
5
 10
22.004300
 20
11.565400
 30
0.0
  0
VERTEX
  8
5
 10
22.000000
 20
11.500000
 30
0.0
  0
SEQEND
  0
POLYLINE
  8
5
  6
LINETYPE_1
 66
     1
 10
0.0
 20
0.0
 30
0.0
  0
VERTEX
  8
5
 10
22.000000
 20
9.000000
 30
0.0
  0
VERTEX
  8
5
 10
22.004300
 20
8.901900
 30
0.0
  0
VERTEX
  8
5
 10
22.017100
 20
8.804200
 30
0.0
  0
VERTEX
  8
5
 10
22.038400
 20
8.707400
 30
0.0
  0
VERTEX
  8
5
 10
22.068100
 20
8.611800
 30
0.0
  0
VERTEX
  8
5
 10
22.106100
 20
8.517800
 30
0.0
  0
VERTEX
  8
5
 10
22.152200
 20
8.426000
 30
0.0
  0
VERTEX
  8
5
 10
22.206300
 20
8.336600
 30
0.0
  0
VERTEX
  8
5
 10
22.267900
 20
8.250000
 30
0.0
  0
VERTEX
  8
5
 10
22.337100
 20
8.166600
 30
0.0
  0
VERTEX
  8
5
 10
22.413300
 20
8.086900
 30
0.0
  0
VERTEX
  8
5
 10
22.496300
 20
8.011000
 30
0.0
  0
VERTEX
  8
5
 10
22.585800
 20
7.939300
 30
0.0
  0
VERTEX
  8
5
 10
22.681300
 20
7.872200
 30
0.0
  0
VERTEX
  8
5
 10
22.782500
 20
7.810000
 30
0.0
  0
VERTEX
  8
5
 10
22.888900
 20
7.752800
 30
0.0
  0
VERTEX
  8
5
 10
23.000000
 20
7.701000
 30
0.0
  0
VERTEX
  8
5
 10
23.115400
 20
7.654700
 30
0.0
  0
VERTEX
  8
5
 10
23.234600
 20
7.614200
 30
0.0
  0
VERTEX
  8
5
 10
23.357100
 20
7.579600
 30
0.0
  0
VERTEX
  8
5
 10
23.482400
 20
7.551100
 30
0.0
  0
VERTEX
  8
5
 10
23.609800
 20
7.528800
 30
0.0
  0
VERTEX
  8
5
 10
23.738900
 20
7.512800
 30
0.0
  0
VERTEX
  8
5
 10
23.869200
 20
7.503200
 30
0.0
  0
VERTEX
  8
5
 10
24.000000
 20
7.500000
 30
0.0
  0
VERTEX
  8
5
 10
24.130800
 20
7.503200
 30
0.0
  0
VERTEX
  8
5
 10
24.261100
 20
7.512800
 30
0.0
  0
VERTEX
  8
5
 10
24.390200
 20
7.528800
 30
0.0
  0
VERTEX
  8
5
 10
24.517600
 20
7.551100
 30
0.0
  0
VERTEX
  8
5
 10
24.642900
 20
7.579600
 30
0.0
  0
VERTEX
  8
5
 10
24.765400
 20
7.614200
 30
0.0
  0
VERTEX
  8
5
 10
24.884600
 20
7.654700
 30
0.0
  0
VERTEX
  8
5
 10
25.000000
 20
7.701000
 30
0.0
  0
VERTEX
  8
5
 10
25.111100
 20
7.752800
 30
0.0
  0
VERTEX
  8
5
 10
25.217500
 20
7.810000
 30
0.0
  0
VERTEX
  8
5
 10
25.318700
 20
7.872200
 30
0.0
  0
VERTEX
  8
5
 10
25.414200
 20
7.939300
 30
0.0
  0
VERTEX
  8
5
 10
25.503700
 20
8.011000
 30
0.0
  0
VERTEX
  8
5
 10
25.586700
 20
8.086900
 30
0.0
  0
VERTEX
  8
5
 10
25.662900
 20
8.166600
 30
0.0
  0
VERTEX
  8
5
 10
25.732100
 20
8.250000
 30
0.0
  0
VERTEX
  8
5
 10
25.793700
 20
8.336600
 30
0.0
  0
VERTEX
  8
5
 10
25.847800
 20
8.426000
 30
0.0
  0
VERTEX
  8
5
 10
25.893900
 20
8.517800
 30
0.0
  0
VERTEX
  8
5
 10
25.931900
 20
8.611800
 30
0.0
  0
VERTEX
  8
5
 10
25.961600
 20
8.707400
 30
0.0
  0
VERTEX
  8
5
 10
25.982900
 20
8.804200
 30
0.0
  0
VERTEX
  8
5
 10
25.995700
 20
8.901900
 30
0.0
  0
VERTEX
  8
5
 10
26.000000
 20
9.000000
 30
0.0
  0
VERTEX
  8
5
 10
25.995700
 20
9.098100
 30
0.0
  0
VERTEX
  8
5
 10
25.982900
 20
9.195800
 30
0.0
  0
VERTEX
  8
5
 10
25.961600
 20
9.292600
 30
0.0
  0
VERTEX
  8
5
 10
25.931900
 20
9.388200
 30
0.0
  0
VERTEX
  8
5
 10
25.893900
 20
9.482200
 30
0.0
  0
VERTEX
  8
5
 10
25.847800
 20
9.574000
 30
0.0
  0
VERTEX
  8
5
 10
25.793700
 20
9.663400
 30
0.0
  0
VERTEX
  8
5
 10
25.732100
 20
9.750000
 30
0.0
  0
VERTEX
  8
5
 10
25.662900
 20
9.833400
 30
0.0
  0
VERTEX
  8
5
 10
25.586700
 20
9.913100
 30
0.0
  0
VERTEX
  8
5
 10
25.503700
 20
9.989000
 30
0.0
  0
VERTEX
  8
5
 10
25.414200
 20
10.060700
 30
0.0
  0
VERTEX
  8
5
 10
25.318700
 20
10.127800
 30
0.0
  0
VERTEX
  8
5
 10
25.217500
 20
10.190000
 30
0.0
  0
VERTEX
  8
5
 10
25.111100
 20
10.247200
 30
0.0
  0
VERTEX
  8
5
 10
25.000000
 20
10.299000
 30
0.0
  0
VERTEX
  8
5
 10
24.884600
 20
10.345300
 30
0.0
  0
VERTEX
  8
5
 10
24.765400
 20
10.385800
 30
0.0
  0
VERTEX
  8
5
 10
24.642900
 20
10.420400
 30
0.0
  0
VERTEX
  8
5
 10
24.517600
 20
10.448900
 30
0.0
  0
VERTEX
  8
5
 10
24.390200
 20
10.471200
 30
0.0
  0
VERTEX
  8
5
 10
24.261100
 20
10.487200
 30
0.0
  0
VERTEX
  8
5
 10
24.130800
 20
10.496800
 30
0.0
  0
VERTEX
  8
5
 10
24.000000
 20
10.500000
 30
0.0
  0
VERTEX
  8
5
 10
23.869200
 20
10.496800
 30
0.0
  0
VERTEX
  8
5
 10
23.738900
 20
10.487200
 30
0.0
  0
VERTEX
  8
5
 10
23.609800
 20
10.471200
 30
0.0
  0
VERTEX
  8
5
 10
23.482400
 20
10.448900
 30
0.0
  0
VERTEX
  8
5
 10
23.357100
 20
10.420400
 30
0.0
  0
VERTEX
  8
5
 10
23.234600
 20
10.385800
 30
0.0
  0
VERTEX
  8
5
 10
23.115400
 20
10.345300
 30
0.0
  0
VERTEX
  8
5
 10
23.000000
 20
10.299000
 30
0.0
  0
VERTEX
  8
5
 10
22.888900
 20
10.247200
 30
0.0
  0
VERTEX
  8
5
 10
22.782500
 20
10.190000
 30
0.0
  0
VERTEX
  8
5
 10
22.681300
 20
10.127800
 30
0.0
  0
VERTEX
  8
5
 10
22.585800
 20
10.060700
 30
0.0
  0
VERTEX
  8
5
 10
22.496300
 20
9.989000
 30
0.0
  0
VERTEX
  8
5
 10
22.413300
 20
9.913100
 30
0.0
  0
VERTEX
  8
5
 10
22.337100
 20
9.833400
 30
0.0
  0
VERTEX
  8
5
 10
22.267900
 20
9.750000
 30
0.0
  0
VERTEX
  8
5
 10
22.206300
 20
9.663400
 30
0.0
  0
VERTEX
  8
5
 10
22.152200
 20
9.574000
 30
0.0
  0
VERTEX
  8
5
 10
22.106100
 20
9.482200
 30
0.0
  0
VERTEX
  8
5
 10
22.068100
 20
9.388200
 30
0.0
  0
VERTEX
  8
5
 10
22.038400
 20
9.292600
 30
0.0
  0
VERTEX
  8
5
 10
22.017100
 20
9.195800
 30
0.0
  0
VERTEX
  8
5
 10
22.004300
 20
9.098100
 30
0.0
  0
VERTEX
  8
5
 10
22.000000
 20
9.000000
 30
0.0
  0
SEQEND
  0
POLYLINE
  8
5
  6
LINETYPE_1
 66
     1
 10
0.0
 20
0.0
 30
0.0
  0
VERTEX
  8
5
 10
43.500000
 20
31.500000
 30
0.0
  0
VERTEX
  8
5
 10
44.500000
 20
31.500000
 30
0.0
  0
SEQEND
  0
POLYLINE
  8
5
  6
LINETYPE_1
 66
     1
 10
0.0
 20
0.0
 30
0.0
  0
VERTEX
  8
5
 10
43.500000
 20
36.000000
 30
0.0
  0
VERTEX
  8
5
 10
44.000000
 20
36.500000
 30
0.0
  0
SEQEND
  0
POLYLINE
  8
5
  6
LINETYPE_1
 66
     1
 10
0.0
 20
0.0
 30
0.0
  0
VERTEX
  8
5
 10
44.000000
 20
36.500000
 30
0.0
  0
VERTEX
  8
5
 10
44.000000
 20
31.500000
 30
0.0
  0
SEQEND
  0
ARC
  8
5
  6
LINETYPE_11
 10
40.500000
 20
35.000000
 40
1.500000
 50
303.690068
 51
180.000000
  0
POLYLINE
  8
5
  6
LINETYPE_11
 40
0.000000
 41
0.000000
 66
     1
 10
0.0
 20
0.0
 30
0.0
  0
VERTEX
  8
5
 10
42.000000
 20
31.500000
 30
0.0
  0
VERTEX
  8
5
 10
39.000000
 20
31.500000
 30
0.0
  0
SEQEND
  0
POLYLINE
  8
5
  6
LINETYPE_11
 40
0.000000
 41
0.000000
 66
     1
 10
0.0
 20
0.0
 30
0.0
  0
VERTEX
  8
5
 10
39.000000
 20
31.500000
 30
0.0
  0
VERTEX
  8
5
 10
39.106100
 20
31.711800
 30
0.0
  0
SEQEND
  0
POLYLINE
  8
5
  6
LINETYPE_11
 40
0.000000
 41
0.000000
 66
     1
 10
0.0
 20
0.0
 30
0.0
  0
VERTEX
  8
5
 10
39.106100
 20
31.711800
 30
0.0
  0
VERTEX
  8
5
 10
39.132600
 20
31.763300
 30
0.0
  0
SEQEND
  0
POLYLINE
  8
5
  6
LINETYPE_11
 40
0.000000
 41
0.000000
 66
     1
 10
0.0
 20
0.0
 30
0.0
  0
VERTEX
  8
5
 10
39.132600
 20
31.763300
 30
0.0
  0
VERTEX
  8
5
 10
39.163600
 20
31.820900
 30
0.0
  0
SEQEND
  0
POLYLINE
  8
5
  6
LINETYPE_11
 40
0.000000
 41
0.000000
 66
     1
 10
0.0
 20
0.0
 30
0.0
  0
VERTEX
  8
5
 10
39.163600
 20
31.820900
 30
0.0
  0
VERTEX
  8
5
 10
39.199500
 20
31.884200
 30
0.0
  0
SEQEND
  0
POLYLINE
  8
5
  6
LINETYPE_11
 40
0.000000
 41
0.000000
 66
     1
 10
0.0
 20
0.0
 30
0.0
  0
VERTEX
  8
5
 10
39.199500
 20
31.884200
 30
0.0
  0
VERTEX
  8
5
 10
39.240900
 20
31.952800
 30
0.0
  0
SEQEND
  0
POLYLINE
  8
5
  6
LINETYPE_11
 40
0.000000
 41
0.000000
 66
     1
 10
0.0
 20
0.0
 30
0.0
  0
VERTEX
  8
5
 10
39.240900
 20
31.952800
 30
0.0
  0
VERTEX
  8
5
 10
39.288200
 20
32.026100
 30
0.0
  0
SEQEND
  0
POLYLINE
  8
5
  6
LINETYPE_11
 40
0.000000
 41
0.000000
 66
     1
 10
0.0
 20
0.0
 30
0.0
  0
VERTEX
  8
5
 10
39.288200
 20
32.026100
 30
0.0
  0
VERTEX
  8
5
 10
39.341800
 20
32.103800
 30
0.0
  0
SEQEND
  0
POLYLINE
  8
5
  6
LINETYPE_11
 40
0.000000
 41
0.000000
 66
     1
 10
0.0
 20
0.0
 30
0.0
  0
VERTEX
  8
5
 10
39.341800
 20
32.103800
 30
0.0
  0
VERTEX
  8
5
 10
39.402100
 20
32.185300
 30
0.0
  0
SEQEND
  0
POLYLINE
  8
5
  6
LINETYPE_11
 40
0.000000
 41
0.000000
 66
     1
 10
0.0
 20
0.0
 30
0.0
  0
VERTEX
  8
5
 10
39.402100
 20
32.185300
 30
0.0
  0
VERTEX
  8
5
 10
39.470100
 20
32.270300
 30
0.0
  0
SEQEND
  0
POLYLINE
  8
5
  6
LINETYPE_11
 40
0.000000
 41
0.000000
 66
     1
 10
0.0
 20
0.0
 30
0.0
  0
VERTEX
  8
5
 10
39.470100
 20
32.270300
 30
0.0
  0
VERTEX
  8
5
 10
39.545500
 20
32.358400
 30
0.0
  0
SEQEND
  0
POLYLINE
  8
5
  6
LINETYPE_11
 40
0.000000
 41
0.000000
 66
     1
 10
0.0
 20
0.0
 30
0.0
  0
VERTEX
  8
5
 10
39.545500
 20
32.358400
 30
0.0
  0
VERTEX
  8
5
 10
39.629400
 20
32.449100
 30
0.0
  0
SEQEND
  0
POLYLINE
  8
5
  6
LINETYPE_11
 40
0.000000
 41
0.000000
 66
     1
 10
0.0
 20
0.0
 30
0.0
  0
VERTEX
  8
5
 10
39.629400
 20
32.449100
 30
0.0
  0
VERTEX
  8
5
 10
39.722000
 20
32.542000
 30
0.0
  0
SEQEND
  0
POLYLINE
  8
5
  6
LINETYPE_11
 40
0.000000
 41
0.000000
 66
     1
 10
0.0
 20
0.0
 30
0.0
  0
VERTEX
  8
5
 10
39.722000
 20
32.542000
 30
0.0
  0
VERTEX
  8
5
 10
39.823600
 20
32.636600
 30
0.0
  0
SEQEND
  0
POLYLINE
  8
5
  6
LINETYPE_11
 40
0.000000
 41
0.000000
 66
     1
 10
0.0
 20
0.0
 30
0.0
  0
VERTEX
  8
5
 10
39.823600
 20
32.636600
 30
0.0
  0
VERTEX
  8
5
 10
39.932400
 20
32.731900
 30
0.0
  0
SEQEND
  0
POLYLINE
  8
5
  6
LINETYPE_11
 40
0.000000
 41
0.000000
 66
     1
 10
0.0
 20
0.0
 30
0.0
  0
VERTEX
  8
5
 10
39.932400
 20
32.731900
 30
0.0
  0
VERTEX
  8
5
 10
40.046900
 20
32.827400
 30
0.0
  0
SEQEND
  0
POLYLINE
  8
5
  6
LINETYPE_11
 40
0.000000
 41
0.000000
 66
     1
 10
0.0
 20
0.0
 30
0.0
  0
VERTEX
  8
5
 10
40.046900
 20
32.827400
 30
0.0
  0
VERTEX
  8
5
 10
40.165100
 20
32.922000
 30
0.0
  0
SEQEND
  0
POLYLINE
  8
5
  6
LINETYPE_11
 40
0.000000
 41
0.000000
 66
     1
 10
0.0
 20
0.0
 30
0.0
  0
VERTEX
  8
5
 10
40.165100
 20
32.922000
 30
0.0
  0
VERTEX
  8
5
 10
40.285400
 20
33.014800
 30
0.0
  0
SEQEND
  0
POLYLINE
  8
5
  6
LINETYPE_11
 40
0.000000
 41
0.000000
 66
     1
 10
0.0
 20
0.0
 30
0.0
  0
VERTEX
  8
5
 10
40.285400
 20
33.014800
 30
0.0
  0
VERTEX
  8
5
 10
40.405700
 20
33.105100
 30
0.0
  0
SEQEND
  0
POLYLINE
  8
5
  6
LINETYPE_11
 40
0.000000
 41
0.000000
 66
     1
 10
0.0
 20
0.0
 30
0.0
  0
VERTEX
  8
5
 10
40.405700
 20
33.105100
 30
0.0
  0
VERTEX
  8
5
 10
40.524200
 20
33.191900
 30
0.0
  0
SEQEND
  0
POLYLINE
  8
5
  6
LINETYPE_11
 40
0.000000
 41
0.000000
 66
     1
 10
0.0
 20
0.0
 30
0.0
  0
VERTEX
  8
5
 10
40.524200
 20
33.191900
 30
0.0
  0
VERTEX
  8
5
 10
40.639100
 20
33.274300
 30
0.0
  0
SEQEND
  0
POLYLINE
  8
5
  6
LINETYPE_11
 40
0.000000
 41
0.000000
 66
     1
 10
0.0
 20
0.0
 30
0.0
  0
VERTEX
  8
5
 10
40.639100
 20
33.274300
 30
0.0
  0
VERTEX
  8
5
 10
40.748800
 20
33.351600
 30
0.0
  0
SEQEND
  0
POLYLINE
  8
5
  6
LINETYPE_11
 40
0.000000
 41
0.000000
 66
     1
 10
0.0
 20
0.0
 30
0.0
  0
VERTEX
  8
5
 10
40.748800
 20
33.351600
 30
0.0
  0
VERTEX
  8
5
 10
40.851100
 20
33.422700
 30
0.0
  0
SEQEND
  0
POLYLINE
  8
5
  6
LINETYPE_11
 40
0.000000
 41
0.000000
 66
     1
 10
0.0
 20
0.0
 30
0.0
  0
VERTEX
  8
5
 10
40.851100
 20
33.422700
 30
0.0
  0
VERTEX
  8
5
 10
40.944400
 20
33.486800
 30
0.0
  0
SEQEND
  0
POLYLINE
  8
5
  6
LINETYPE_11
 40
0.000000
 41
0.000000
 66
     1
 10
0.0
 20
0.0
 30
0.0
  0
VERTEX
  8
5
 10
40.944400
 20
33.486800
 30
0.0
  0
VERTEX
  8
5
 10
41.026700
 20
33.543300
 30
0.0
  0
SEQEND
  0
POLYLINE
  8
5
  6
LINETYPE_11
 40
0.000000
 41
0.000000
 66
     1
 10
0.0
 20
0.0
 30
0.0
  0
VERTEX
  8
5
 10
41.026700
 20
33.543300
 30
0.0
  0
VERTEX
  8
5
 10
41.096900
 20
33.591200
 30
0.0
  0
SEQEND
  0
POLYLINE
  8
5
  6
LINETYPE_11
 40
0.000000
 41
0.000000
 66
     1
 10
0.0
 20
0.0
 30
0.0
  0
VERTEX
  8
5
 10
41.096900
 20
33.591200
 30
0.0
  0
VERTEX
  8
5
 10
41.155400
 20
33.631000
 30
0.0
  0
SEQEND
  0
POLYLINE
  8
5
  6
LINETYPE_11
 40
0.000000
 41
0.000000
 66
     1
 10
0.0
 20
0.0
 30
0.0
  0
VERTEX
  8
5
 10
41.155400
 20
33.631000
 30
0.0
  0
VERTEX
  8
5
 10
41.203200
 20
33.664000
 30
0.0
  0
SEQEND
  0
POLYLINE
  8
5
  6
LINETYPE_11
 40
0.000000
 41
0.000000
 66
     1
 10
0.0
 20
0.0
 30
0.0
  0
VERTEX
  8
5
 10
41.203200
 20
33.664000
 30
0.0
  0
VERTEX
  8
5
 10
41.241600
 20
33.690000
 30
0.0
  0
SEQEND
  0
POLYLINE
  8
5
  6
LINETYPE_11
 40
0.000000
 41
0.000000
 66
     1
 10
0.0
 20
0.0
 30
0.0
  0
VERTEX
  8
5
 10
41.241600
 20
33.690000
 30
0.0
  0
VERTEX
  8
5
 10
41.271600
 20
33.710400
 30
0.0
  0
SEQEND
  0
POLYLINE
  8
5
  6
LINETYPE_11
 40
0.000000
 41
0.000000
 66
     1
 10
0.0
 20
0.0
 30
0.0
  0
VERTEX
  8
5
 10
41.271600
 20
33.710400
 30
0.0
  0
VERTEX
  8
5
 10
41.294000
 20
33.725900
 30
0.0
  0
SEQEND
  0
POLYLINE
  8
5
  6
LINETYPE_11
 40
0.000000
 41
0.000000
 66
     1
 10
0.0
 20
0.0
 30
0.0
  0
VERTEX
  8
5
 10
41.294000
 20
33.725900
 30
0.0
  0
VERTEX
  8
5
 10
41.310100
 20
33.736700
 30
0.0
  0
SEQEND
  0
POLYLINE
  8
5
  6
LINETYPE_11
 40
0.000000
 41
0.000000
 66
     1
 10
0.0
 20
0.0
 30
0.0
  0
VERTEX
  8
5
 10
41.310100
 20
33.736700
 30
0.0
  0
VERTEX
  8
5
 10
41.320800
 20
33.744200
 30
0.0
  0
SEQEND
  0
POLYLINE
  8
5
  6
LINETYPE_11
 40
0.000000
 41
0.000000
 66
     1
 10
0.0
 20
0.0
 30
0.0
  0
VERTEX
  8
5
 10
41.320800
 20
33.744200
 30
0.0
  0
VERTEX
  8
5
 10
41.327400
 20
33.748700
 30
0.0
  0
SEQEND
  0
POLYLINE
  8
5
  6
LINETYPE_11
 40
0.000000
 41
0.000000
 66
     1
 10
0.0
 20
0.0
 30
0.0
  0
VERTEX
  8
5
 10
41.327400
 20
33.748700
 30
0.0
  0
VERTEX
  8
5
 10
41.330700
 20
33.750900
 30
0.0
  0
SEQEND
  0
POLYLINE
  8
5
  6
LINETYPE_11
 40
0.000000
 41
0.000000
 66
     1
 10
0.0
 20
0.0
 30
0.0
  0
VERTEX
  8
5
 10
41.330700
 20
33.750900
 30
0.0
  0
VERTEX
  8
5
 10
41.331900
 20
33.751700
 30
0.0
  0
SEQEND
  0
POLYLINE
  8
5
  6
LINETYPE_11
 40
0.000000
 41
0.000000
 66
     1
 10
0.0
 20
0.0
 30
0.0
  0
VERTEX
  8
5
 10
41.331900
 20
33.751700
 30
0.0
  0
VERTEX
  8
5
 10
41.332100
 20
33.751900
 30
0.0
  0
SEQEND
  0
POLYLINE
  8
5
  6
LINETYPE_11
 40
0.000000
 41
0.000000
 66
     1
 10
0.0
 20
0.0
 30
0.0
  0
VERTEX
  8
5
 10
41.332100
 20
33.751900
 30
0.0
  0
VERTEX
  8
5
 10
41.332100
 20
33.751900
 30
0.0
  0
SEQEND
  0
TEXT
  8
5
 10
1.490500
 20
36.033800
 30
0.0
 40
0.312300
  1
Blue characters indicate part quantities.
 50
0.000000
  0
TEXT
  8
0
 10
1.500000
 20
43.000000
 30
0.0
 40
0.312300
  1
Chair requires twenty-one 18x24" signs and four 48"x48" signs of 4mm thick coroplast.  
 50
0.000000
  0
ENDSEC
  0
EOF
